Jump to content


Ventures, The


  • Please log in to reply
17 replies to this topic

#1 wafffle

wafffle
  • Moderator
  • PipPipPipPipPipPipPipPipPip
  • 47,580 posts
  • Gender:Not Telling
  • Original Name: springwaffle

Posted 13 April 2010 - 01:45 PM

A

Apache (GUITAR TAB)

B

C

Cruncher - (GUITAR TAB)

D

E

F

The Fourth Dimension - (GUITAR TAB)

G

(Ghost) Riders in the Sky - (GUITAR TAB)
Gully-ver - (GUITAR TAB)

H

He Never Came Back - (GUITAR TAB)

I

J

Jingle Bell Rock - (GUITAR TAB)
Joker's Wild - (GUITAR TAB)
Journey to the Stars - (GUITAR TAB)

K

L

La Bamba - (GUITAR TAB)
Love Goddess of Venus - (GUITAR TAB)

M

N

O

Out of Limits - (GUITAR TAB)

P

Pipeline - (GUITAR TAB)

Q

R

Rap City - (GUITAR TAB)

S

Secret Agent Man - (GUITAR TAB)

T

Tequila - (GUITAR TAB)

U

V

W

Walk Don't Run - (GUITAR TAB)

X

Y

Z

#2 wafffle

wafffle
  • Moderator
  • PipPipPipPipPipPipPipPipPip
  • 47,580 posts
  • Gender:Not Telling
  • Original Name: springwaffle

Posted 13 April 2010 - 02:02 PM

APACHE

[tab]
Intro
e-----------------------17-15-12-
b----13-15b16r15-----13----------
g-14--------------14-------------
d--------------------------------
a--------------------------------
e--------------------------------

Riff 1
e------------------------8-10b11r10--8-10-8----
b---------------------10--------------------10-
g----------------------------------------------
d-2-/7-\2/7\4-\2-0-2---------------------------
a----------------------------------------------
e----------------------------------------------

Riff 1b
e------------------------13-15b16r15--13-15-13----
b---------------------15-----------------------15-
g-2-/7-\2/7\4-\2-0-2------------------------------
d-------------------------------------------------
a-------------------------------------------------
e-------------------------------------------------

Riff 2
e---------------------------------------------------
b---------------------------------------------------
g-------------------------------------------------2-
d-------------------------------------------------2-
a---8-8-8-------8-8-8-------8-8-8-------8-8-8-8-7\0-
e-8-------8-8-8-------8-8-8-------8-8-8-------------
e s s e s s e s s e s s e s s e s s e s s e e h w.

Riff 3 Riff 3b
e--------------0--------12-10-8----|----------------12-10-8-6-3-----------
b-----1-0--1-3---3-1------------10-|-----1-0--1-3---------------5-3-------
g---2----------------2-------------|---2----------0-----------------5-3-2-
d-3--------------------------------|-3------------------------------------
a----------------------------------|--------------------------------------
e----------------------------------|--------------------------------------

Riff 4
e|-----17----17-14-----------|-------------------|----17----17-14----------
b|*-17----17-------17-15-17-*|---3----3-0--------|-17----17-------17-15-17-
g|---------------------------|-2----2------2-0-2-|-------------------------
d|---------------------------|-------------------|-------------------------
a|*-------------------------*|-------------------|-------------------------
e|---------------------------|-------------------|-------------------------
tr.................. tr..................
[/tab]

e = eighth note
s = sixteenth note
h = half note
w. = dotted whole note
tr = tremolo picking

Song Structure:

Intro x2
Riff 1 x2
Riff 1b
Riff 1
Riff 2 x2
Riff 3
Riff 3b
Riff 3
Riff 2 x2
Riff 4
Riff 3
Riff 3b
Riff 3
Riff 2 x2
Intro (Song fades but you can end on Am)

#3 wafffle

wafffle
  • Moderator
  • PipPipPipPipPipPipPipPipPip
  • 47,580 posts
  • Gender:Not Telling
  • Original Name: springwaffle

Posted 14 April 2010 - 11:17 AM

CRUNCHER

[tab]
Part One:
e-------------------------------------------------------------------------------
b-------------------------------------------------------------------------------
g-------------------------------------------------------------------------------
d------------------------------------------------------/2----2--1---------------
a-0-1----0----0-1----0----0-1--0--1--0--1-0-1-0-1-0-1-1------------4----4--2--0-
e-------------------------------------------------------------------------------

e---------------------------------------------------------------
b---------------------------------------------------------------
g---------------------------------------------------------------
d---------------/2----2--1--------------------------------------
a-0--1--2-------------------4----4--2--0----0--1--2-------------
e------------2b---------------------------------------2b--2b--0-

*Drum solo*

Part Two:
e-----------------------------------
b-----------------------------------
g-----------------------------------
d-2---0-----------------0-2-0-------
a---------4---2---0-2-4-------4-2-0-
e-----------------------------------

*Drum solo*

Part Three:
e-----------------------------------------------------------------------------------
b-----------------------------------------------------------------------------------
g-----------------------------------------------------------------------------------
d------------------------------------------------------/2------2--1-----------------
a-0-1----0----0-1----0----0-1--0--1--0--1-0-1-0-1-0-1-1-----0--------4---0--4--2--0-
e-----------------------------------------------------------------------------------

e--------------------------------------------------------------------------
b--------------------------------------------------------------------------
g--------------------------------------------------------------------------
d--------------------/2------2--1------------------------------------------
a----0--4--2--------------0--------4---0--4--2--0------0--4--2-------------
e-0------------0--2b--------------------------------0------------2b--2b--0-
[/tab]

#4 wafffle

wafffle
  • Moderator
  • PipPipPipPipPipPipPipPipPip
  • 47,580 posts
  • Gender:Not Telling
  • Original Name: springwaffle

Posted 14 April 2010 - 11:37 AM

(GHOST) RIDERS IN THE SKY

[tab]
e----------------------------------------------------------
b----------------------------------------------------------
g----------------------------------------------------------
d----------------------------------------------0-2-2-2---2-
a---0-0-0-2-3-3-3-0--------------0-0-0-2-3-3-3---------3---
e-0-----------------3-3-3-0-3--0---------------------------

e------------------------------------------------------------
b------------------------------------------------------------
g-----2-2--2-2-----------------------------------------------
d-2-2----------2-2--2-2-2-2----------------------------------
a---------------------------3-0------------3-3-3--/3-0-0---0-
e--------------------------------3-1-1-1-1---------------3---

e|-------------------------------|
b|*-----------------------------*|
g|-------------------------------|
d|-------------------------------|
a|*-0-7-7---7-7-0-7-7---(7)-(7)-*|
e|--------0-----------0----------|

e|-----------------------------------------------------------
b|*----------------------------------------------------------
g|-----------------------------------------------------------
d|-----------------------------------------------0-2-2-2---2-
a|*---0-0-0-2-3-3-3-0--------------0-0-0-2-3-3-3---------3---
e|--0-----------------3-3-3-0-3--0---------------------------

e------------------------------------------------------------
b------------------------------------------------------------
g-----2-2--2-2-----------------------------------------------
d-2-2----------2-2--2-2-2-2----------------------------------
a---------------------------3-0------------3-3-3--/3-0-0---0-
e--------------------------------3-1-1-1-1---------------3---
______________________________________
| 1
e-0-0-0-0---5-5-5-5-0-------------------|
b-1-1-1-1---5-5-5-5-1------------------*|
g-2-2-2-0---5-5-5-5-2-------------------|
d-2-2-2-2-----------2-------------------|
a-0-0-0-3-----------0---------3--3-0---*|
e-----------------------3-1-1-----------|
_________________________________________________________
| 2
e----------------------------------------------------------
b----------------------------------------------------------
g----------------------------------------------------------
d----------------------------------------------3-5-5-5---5-
a---3-3-3-5-6-6-6-3--------------3-3-3-5-6-6-6---------6---
e-3-----------------6-6-6-3-6--3---------------------------

e------------------------------------------------------------
b------------------------------------------------------------
g-----5-5--5-5-----------------------------------------------
d-5-5----------5-5--5-5-5-5----------------------------------
a---------------------------6-3------------6-6-6--/6-3-3---3-
e--------------------------------6-4-4-4-4---------------6---

e-0-0-0-0---5-5-5-5-0----------------
b-1-1-1-1---5-5-5-5-1----------------
g-2-2-2-0---5-5-5-5-2----------------
d-2-2-2-2-----------2----------------
a-0-0-0-3-----------0---------3--3-0-
e-----------------------3-1-1--------

e|---------------------------|
b|*-------------------------*|f
g|---------------------------|a
d|---------------------------|d
a|*-0-7-7---7-7-0-7-7---7-7-*|e
e|--------0-----------0------|
[/tab]

(7) = ghost notes, not played second time

#5 wafffle

wafffle
  • Moderator
  • PipPipPipPipPipPipPipPipPip
  • 47,580 posts
  • Gender:Not Telling
  • Original Name: springwaffle

Posted 14 April 2010 - 11:41 AM

GULLY-VER

[tab]
e-----------------------------------------5------------5----------------------5-
b-----------------------------------------5------------5------------5---------5-
g-------------------------------------5-7----7-5-7-5-7----8-7-5-----5---7-5-7---
d---------------------------------------------------------------7-7---7---------
a-------0----------0---------------0--------------------------------------------
e-0-3-4------0-3-4------12\-0--3b-----------------------------------------------

e--------------5------------5----------------------
b--------------5------------5-----------5--6-5-----
g----------5-7----7-5-7-5-7----8-7-5----5--7-5-----
d------------------------------------7-----------7-
a-------0------------------------------------------
e-0-3-4--------------------------------------------

e-----------|--------5--------------5----------------------5-
b-----------|*-------5--------------5------------5---------5-
g-----------|----5-7----7-5-(7)-5-7----8-7-5-----5---7-5-7---
d-----------|--------------------------------7-7---7---------
a-----------|*-0---------------------------------------------
e-12\-0--3b-|------------------------------------------------

e--------------5------------5----------------------
b--------------5------------5-----------5--6-5-----
g----------5-7----7-5-7-5-7----8-7-5----5--7-5----- To Coda
d------------------------------------7-----------7-
a-------0------------------------------------------
e-0-3-4--------------------------------------------

e---------------5--5--5---5--5-6-5-------5b--5----------5b--5---------
b---------------5--6--6-8-6--------8-6-8-5b--5----------5b--5---------
g-----------------------------------------------7-5---5-------7-5---5-
d------------0--------------------------------------7-------------7---
a-12\-0--3b-----------------------------------------------------------
e---------------------------------------------------------------------

e-5--5---5------5--5-6-5-------------------------5-5-5-5--------|
b-6--6-8-6--6-8----------8-6-8-5-55-5-5-6-6-6-6--5-5-6-5-------*|
g--------------------------------------------------------7-5-4--| repeat twice
d---------------------------------------------------------------| second time
a--------------------------------------------------------------*| go to coda
e---------------------------------------------------------------|

Coda
e----------------------------
b----------------------------
g----------------------------
d----------------------------
a-12\-0~~~~12\-0~~~~12\-0~~~~
e----------------------------
fading..............
[/tab]

~ = vibrato, use whammy bar
(7) = ghost note, not played last time

#6 wafffle

wafffle
  • Moderator
  • PipPipPipPipPipPipPipPipPip
  • 47,580 posts
  • Gender:Not Telling
  • Original Name: springwaffle

Posted 14 April 2010 - 11:45 AM

HE NEVER CAME BACK

[tab]
e----------------------------------------0----------------------------
b---------------------------------------------------------------------
g-------------------------------------------3p2---0-------------------
d-----0------------------0----------------------2---2---------0-------
a-0-2------------0---/2-----2p0---0---------------------0-0-2---2p0---
e-------0---0-3----3------------3---3-0-----------------------------3-

e-----------------------------------7-------------
b---------------------------------7---------------
g-------------------------------------9b-8---8----
d------------------0---2-0-----------------9---9--
a----------0---/2----2-----2-0-2------------------
e-0---0-3----3------------------------------------

e----------------------------------------------------------------------
b-------0--------------------------------------------------------------
g---0-2---2-1---2-0----------------------------------------------------
d-2-----------2-----2-0------------------------------------------------
a-----------------------2-0-----0-------0--0---0--0---0--0---0---0-1-2-
e---------------------------3-0---3-0-3------3------3------3---3-------

e--------------------0----------------
b--------------------0----------------
g-----------------------3p2---0---0---
d-----0---------------------2---2---2-
a-0-2---2p0---0-----------------------
e-----------3---3-0-------------------

e-------------------------------------------12----------------------------
b----------------------------------------12-------------------------------
g-----------------------------------------------15p14p12-----2b-0---------
d-----0------------------0-------------------------------14-------2-------
a-0-2------------0---/2-----2p0---0---------------------------------2p0---
e-------0---0-3----3------------3---3-0---------------------------------3-

e---------------------------------------12b-12-10-----------------
b------------------------------------12-----------12--------------
g---------------------------------11------------------12----------
d------------------0---2-0-------------------------------14-12----
a----------0---/2----2-----2-0-2-------------------------------14-
e-0---0-3----3----------------------------------------------------

e--------------------------------------------------------------------
b-----0--------------------------------------------------------------
g-0-2---2-1---2-0----------------------------------------------------
d-----------2-----2-0------------------------------------------------
a---------------------2-0-----0-------0--0---0--0---0--0---0---0-1-2-
e-------------------------3-0---3-0-3------3------3------3---3-------

e--------------------0----------------
b--------------------0----------------
g-----------------------3p2---0---0---
d-----0---------------------2---2---2-
a-0-2---2p0---0-----------------------
e-----------3---3-0-------------------

e-----------3--3-3---3--3--3-3-3-3---10---9-10---10--10---9-10--9-10-
b-----------5--3-5---5--5--3-5-3-5---12--10-12---12--12--10-12-10-12-
g--------------------------------------------------------------------
d--------------------------------------------------------------------
a-------0------------------------------------------------------------
e-0-3-4---3----------------------------------------------------------

e-3--3-3---3--3--3-3---5--5--5-4---5--5--5--5-
b-5--3-5---5--5--3-5---7--7--7-----7--7--7--7-
g---------------------------------------------
d---------------------------------------------
a---------------------------------------------
e---------------------------------------------

e---------------------------------------------------
b----------------------------------0w---------------
g--------------------------------------0------------
d------------------0---------------------2--------0-
a----------0---/2-----2p0---0-----------------0-2---
e-0---0-3----3------------3---3-0-------------------

e-----------------------------------2bw-
b---------------------------------------
g---------------------------------------
d------------------0---2-0--------------
a----------0---/2----2-----2-0-2--------
e-0---0-3----3--------------------------

e----------------------------------------------------------------------
b-------0--------------------------------------------------------------
g---0-2---2-1---2-0----------------------------------------------------
d-2-----------2-----2-0------------------------------------------------
a-----------------------2-0-----0-------0--0---0--0---0--0---0---0-1-2-
e---------------------------3-0---3-0-3------3------3------3---3-------

Em D Em D E
e-----------------0----2--0----2--0----
b-----------------0----3--0----3--0----
g-----------------0----2--0----2--1----
d-----0-----------2----0--2----0--2----
a-0-2---2p0---0---2-------2-------2----
e-----------3---3-0-------0-------0----
[/tab]

w = bend with whammy bar
bw = bend and then use whammy bar

#7 wafffle

wafffle
  • Moderator
  • PipPipPipPipPipPipPipPipPip
  • 47,580 posts
  • Gender:Not Telling
  • Original Name: springwaffle

Posted 14 April 2010 - 11:53 AM

JINGLE BELL ROCK

[tab]
x3
e-3---------------|----------------------
b----6------------|----------------------
g-------5b--5-3---|-5b6r5p3------5b6r5p3-
d---------------5-|---------5------------
a-----------------|----------------------
e-----------------|----------------------

e-3-3-2-2-0h2p0------0h2p0------0h2p0------------0----------------------------------
b---------------0--3-------0--3-------1----0-1-3---3---0-1-3---/5-3-5-3-5-3-5-------
g----------------------------------------2-----------2------------------------4-4-4-
d-----------------------------------------------------------------------------------
a-----------------------------------------------------------------------------------
e-----------------------------------------------------------------------------------

e-3-3-3-2-2-2-0h2p0------0h2p0------0h2p0------------0-------------3-0-2-3-5-3-
b-------------------0--3-------0--3-------1----0-1-3---3---0-1-3---------------
g--------------------------------------------2-----------2---------------------
d------------------------------------------------------------------------------
a------------------------------------------------------------------------------
e------------------------------------------------------------------------------

e-3---3/5--3--3---3/5--3--0-3-2-0h2----3---3/5--3--3---3/5--3-
b---5-----------5-------------------0----5-----------5--------
g-------------------------------------------------------------
d-------------------------------------------------------------
a-------------------------------------------------------------
e-------------------------------------------------------------

e-0-5-----0---3p2p0-0------0-3-3-3-2-2-2-0h2p0------0h2p0-----0------3---5-3---
b-----3-3---3---------3--3---------------------0--3-------0-3-----/5---5-----5-
g------------------------------------------------------------------------------
d------------------------------------------------------------------------------
a------------------------------------------------------------------------------
e------------------------------------------------------------------------------

e----3---5-3----3-0-2-3-5-3---3----------------5-------------------------------------
b-/5---5-----5-------------------6----------------8----------------------------------
g-----------------------------------5b--5-3----------7b--7-5-----7b8r7p5-----7b8r7p5-
d-------------------------------------------5----------------7-----------7-----------
a------------------------------------------------------------------------------------
e------------------------------------------------------------------------------------

e-5-5-4-4-2h4p2----0-2h4p2----0-2h4p2----------0-2-0-------0------------------------
b---------------2----------2----------3--0-2-3-------0-2-3-----/7-5-7-5-7-5-7-------
g-----------------------------------------------------------------------------6-6-6-
d-----------------------------------------------------------------------------------
a-----------------------------------------------------------------------------------
e-----------------------------------------------------------------------------------

e-5-5-5-4-4-4-2h4p2----0-2h4p2----0-2h4p2----------0-2-0-------0---5---4-5-7-5-
b-------------------2----------2----------3--0-2-3-------0-2-3-------7---------
g------------------------------------------------------------------------------
d------------------------------------------------------------------------------
a------------------------------------------------------------------------------
e------------------------------------------------------------------------------

e-5---5/7--5--5---5/7--5--2-5-4-2h4----5---5/7--5--5---5/7--5-
b---7-----------7-------------------2----7-----------7--------
g-------------------------------------------------------------
d-------------------------------------------------------------
a-------------------------------------------------------------
e-------------------------------------------------------------

e---7-0-0-2-0-5p4p2-2-0--0-2-5-5-5-4-4-4-2h4p2----0-2h4p2---0-2------5---7-5---
b-7--------------------------------------------2----------2-------/7---7-----7-
g------------------------------------------------------------------------------
d------------------------------------------------------------------------------
a------------------------------------------------------------------------------
e------------------------------------------------------------------------------

x3
e----5---7-5-----5---4-5-7-5-|-5---------------|-----
b-/7---7-----7-----7---------|----8------------|-----
g----------------------------|-------7b--7-5---|-----
d----------------------------|---------------7-|-7-7-
a----------------------------|-----------------|-7-7-
e----------------------------|-----------------|-5-5-
[/tab]

#8 wafffle

wafffle
  • Moderator
  • PipPipPipPipPipPipPipPipPip
  • 47,580 posts
  • Gender:Not Telling
  • Original Name: springwaffle

Posted 14 April 2010 - 12:02 PM

JOKER'S WILD

[tab]
e---------------------
b---------------------
g---------------------
d---------------------
a-0-----0-----0-------
e----1-----1-----1--0-

e-----------------------------------------------------
b-----------------------------------------------------
g------------------------------------------0--0---0---
d---------------------------------3--3---3------0---2- x2
a-0-2-2-0-3-3-0-2-2-0-3-3-0-2-2-0------3--------------
e-----------------------------------------------------

e------------------------
b------------------------
g------------------------
d-2---------------------- x2
a----3--0------2---3---3-
e---------1-0----1---1---

e---------------------------
b---------------------------
g---------------------------
d-2-------------------------
a----3--0------2---3---3--0-
e---------1-0----1---1------

e-0000-0-0-1111-1-1-
b-1111-1-1-1111-1-1-
g-2222-2-2-2222-2-2-
d------------------- x2
a-------------------
e-------------------

e-----------------------------------------------------
b-----------------------------------------------------
g------------------------------------------0--0---0---
d---------------------------------3--3---3------0---2- x2
a-0-2-2-0-3-3-0-2-2-0-3-3-0-2-2-0------3--------------
e-----------------------------------------------------

e------------------------
b------------------------
g------------------------
d-2---------------------- x2
a----3--0------2---3---3-
e---------1-0----1---1---

e---------------------------
b---------------------------
g---------------------------
d-2-------------------------
a----3--0------2---3---3--0-
e---------1-0----1---1------

e-5555-5-5-6666-6-6-
b-6666-6-6-6666-6-6-
g-7777-7-7-7777-7-7-
d-------------------
a-------------------
e-------------------

e-----------------------------------------------------
b------------------------------------------1--1---1---
g---------------------------------3--3---3------0---2- x2
d-0-2-2-0-3-3-0-2-2-0-3-3-0-2-2-0------3--------------
a-----------------------------------------------------
e-----------------------------------------------------

e------------------------
g------------------------
g-2----------------------
d----3--0------2---3---3- x3
a---------1-0----1---1---
e------------------------

e-11-1-1-1-1-1-1--0-00-0-0-0-0-0-0-
b-33-3-3-3-3-3-3--1-11-1-1-1-1-1-1-
g-22-2-2-2-2-2-2--0-00-0-0-0-0-0-0-
d----------------------------------
a----------------------------------
e----------------------------------

e-0000-0-0-1111-1-1-
b-1111-1-1-1111-1-1-
g-2222-2-2-2222-2-2-
d------------------- x2
a-------------------
e-------------------

e-----------------------------------------------------
b-----------------------------------------------------
g------------------------------------------0--0---0---
d---------------------------------3--3---3------0---2- x2
a-0-2-2-0-3-3-0-2-2-0-3-3-0-2-2-0------3--------------
e-----------------------------------------------------

e------------------------
b------------------------
g------------------------
d-2---------------------- x2
a----3--0------2---3---3-
e---------1-0----1---1---

e---------------------------
b---------------------------
g---------------------------
d-2-------------------------
a----3--0------2---3---3--0-
e---------1-0----1---1------

e-0000-0-0-1111-1-1-
b-1111-1-1-1111-1-1- f
g-2222-2-2-2222-2-2- a
d------------------- d
a------------------- e
e-------------------
[/tab]

#9 wafffle

wafffle
  • Moderator
  • PipPipPipPipPipPipPipPipPip
  • 47,580 posts
  • Gender:Not Telling
  • Original Name: springwaffle

Posted 14 April 2010 - 12:12 PM

JOURNEY TO THE STARS

[tab]
e---------------------
b----------------3----
g-2----5----2----2----
d-2----5----2----0----
a-0----3----0---------
e---------------------

e-8-5-8-5- x7
b---------
g---------
d---------
a---------
e--------- ______ ______
| 1 | 2
e|--------------------------------------------------|-------|-8-5-8-5- x7
b|*-------------------------------------------------|------*|---------
g|--------------------------------------------------|-------|---------
d|--------------------------------------------------|-------|---------
a|*-0-2-3--2-0-2--0---------------------------------|------*|---------
e|------------------4-5--0--1--3-1-0--4-7-12-10-8-7-|-12\0--|---------
tr....................................................

e|----------------------------------------------------------------------0----------
b|*----0--1--3p1p0-----0--1p0----------------------------------------0-----3--1--0-
g|--2---------------2--------2--1--2---------2-------0---0--------1----------------
d|--------------------------------------2--2---3---3---3---3-2--2------------------
a|*--------------------------------------------------------------------------------
e|---------------------------------------------------------------------------------
______ _____
| 1 | 2
e-------|--------
b------*|-1----2-
g-------|-2----2-
d-------|-2----2-
a------*|-0----0-
e-12\0--|--------
tr..

Organ solo transcribed for guitar:
e-2----2--2--2---5-4---1-----2----2--2--2---5-4---
b-3-----3--3--3----------2---3-----3--3--3--------
g-2------2--2--2-------------2------2--2--2-------
d-------------------------------------------------
a-------------------------------------------------
e-------------------------------------------------
rake..... rake.....

e-5----5--5--5---8-7---4-----5----5--5--5---8-7---
b-6-----6--6--6----------5---6-----6--6--6--------
g-5------5--5--5-------------5------5--5--5-------
d-------------------------------------------------
a-------------------------------------------------
e-------------------------------------------------
rake..... rake.....

e-8-5-8-5- x7
b---------
g---------
d---------
a---------
e---------

e|----------------------------------------------------------------------0----------
b|*----0--1--3p1p0-----0--1p0----------------------------------------0-----3--1--0-
g|--2---------------2--------2--1--2---------2-------0---0--------1----------------
d|--------------------------------------2--2---3---3---3---3-2--2------------------
a|*--------------------------------------------------------------------------------
e|---------------------------------------------------------------------------------
______ _____
| 1 | 2
e-------|-8-5-8-5- x6
b------*|---------
g-------|---------
d-------|---------
a------*|---------
e-12\0--|---------
tr..

e----0~~~~
b----1~~~~
g----2~~~~
d----2~~~~
a-12\0~~~~
e---------
tr
[/tab]

tr = tremolo picking
~ = vibrato (use whammy bar)

#10 wafffle

wafffle
  • Moderator
  • PipPipPipPipPipPipPipPipPip
  • 47,580 posts
  • Gender:Not Telling
  • Original Name: springwaffle

Posted 14 April 2010 - 12:36 PM

LA BAMBA

[tab]
x3
e-------|--------------------------------|---------------
b-------|*------------------------------*|---------------
g-------|------------2-0-----------------|-----------2-0-
d-------|-----2---3-----------0-3-3-2-0--|----2---3------
a---0-2-|*-3----3-----------2-----------*|-3----3--------
e-3-----|-----------------3--------------|---------------

e|--1--1--1--1-1-0-----|-----------------1-1-0---0------|--------
b|*-0--0--0--0-0----1-*|*-1---1-3------3-------3---3-1-*|-1----0-
g|--0--0--0--0-0-------|----2------0-2------------------|---2--0-
d|---------------------|--------------------------------|--------
a|*-------------------*|*------------------------------*|--------
e|---------------------|--------------------------------|--------

e|--1--1--1--1-1-0-----|----------------1-1-0---0--------------
b|*-0--0--0--0-0----1-*|-1---1-3------3-------3---3-1-1-----0w-
g|--0--0--0--0-0-------|---2------0-2--------------------2--0w-
d|---------------------|---------------------------------------
a|*-------------------*|---------------------------------------
e|---------------------|---------------------------------------

e--------------------|----------------------|----------------
b--------------------|*-17----------15-----*|----------------
g-17----14----16-----|--------17------------|-17----14-------
d-----------------17-|------------------17--|-------------17-
a--------------------|*--------------------*|----------------
e--------------------|----------------------|----------------

e-------|--------------------------------------------
b-------|--------------------------------------------
g-------|--------------------------------------------
d-------|--------0--4-2--------0-0------------0--4-2-
a-------|-0--4-0-------------2-----4-2-0--4-0--------
e-0-2-4-|----------------0-4-------------------------

e|--10--10--10--10-10-9-----|-----------------------10-10-9----9--------|---------
b|*--9---9---9---9--9---10-*|*-10----10-12-------12---------12---12-10-*|-10----9-
g|---9---9---9---9--9-------|-----11--------9-11------------------------|----11-9-
d|--------------------------|-------------------------------------------|---------
a|*------------------------*|*-----------------------------------------*|---------
e|--------------------------|-------------------------------------------|---------

e|--10--10--10--10-10-9-----|----------------------10-10-9----9-----------------
b|*--9---9---9---9--9---10-*|-10----10-12-------12---------12---12-10-10-----9w-
g|---9---9---9---9--9-------|----11--------9-11--------------------------11--9w-
d|--------------------------|---------------------------------------------------
a|*------------------------*|---------------------------------------------------
e|--------------------------|---------------------------------------------------

e--------------------|----------------------|----------------
b--------------------|*-14-----------------*|----------------
g-14----------13-----|--------14----16------|-14-------------
d-------16--------14-|------------------14--|-------16----14-
a--------------------|*--------------------*|----------------
e--------------------|----------------------|----------------

e-------|--------------------------------|
b-------|*------------------------------*|
g-------|------------2-0-----------------|
d-------|-----2---3-----------0-3-3-2-0--|
a---0-2-|*-3----3-----------2-----------*|
e-3-----|-----------------3--------------|

e|----------------------------------------------------|
b|*---------------------------17---------15----------*| f
g|--17----14----16--------------------------17-14-----| a
d|------------------17----------------------------17--| d
a|*--------------------------------------------------*| e
e|----------------------------------------------------|
[/tab]

w = bend with whammy bar

#11 wafffle

wafffle
  • Moderator
  • PipPipPipPipPipPipPipPipPip
  • 47,580 posts
  • Gender:Not Telling
  • Original Name: springwaffle

Posted 14 April 2010 - 12:39 PM

LOVE GODDESS OF VENUS

[tab]
A C#m Bm E7
e|---------------|---------------|---------------|---------------|
b|*-------2-----*|*-------5-----*|*-------3-----*|*-------3-----*|
g|------2---2----|------6---6----|------4---4----|------1---1----|
d|----2-------2--|----6-------6--|----4-------4--|----2-------2--|
a|*-0-----------*|*-4-----------*|*-2-----------*|*-------------*|
e|---------------|---------------|---------------|--0------------|

A C#m Bm E7 A F#m Bm E7
e-0------0----------0-----------0------2----------0--------
b----2------2---3-----3-2--0-------2------2---3-----3-2--0-
g----------------------------------------------------------
d----------------------------------------------------------
a----------------------------------------------------------
e----------------------------------------------------------

Am Bm C#m Bm C#m Bm A G F
e-0-------0---------4----0--4-2-------9-------9-10--7-----9---7---5-
b------2----3--0-----------------3---------9-------------10---8---6-
g-------------------------------------------------------------------
d-------------------------------------------------------------------
a-------------------------------------------------------------------
e-------------------------------------------------------------------

Bb Dm Cm F6 Bb Gm Cm F7
e----------------------------------------------------------
b----------------------------------------------------------
g--------------------------------------0-------------------
d-3--0---3--0---1---3-1-0-------3--0------0---1---3-1-0----
a--------------------------3-----------------------------3-
e----------------------------------------------------------

Dm Cm Dm Cm Dm Cm Dm Cm
e----------------------------------------------------------------------
b-------------------------------------------------------3-------3-4--1-
g-------------------------------------2-------2-0------------2---------
d-3----0--3-1-------3----0--3-1------------3-------1-------------------
a--------------3-----------------3-------------------------------------
e----------------------------------------------------------------------

Bb Ab Gb E A C#m Bm E7 A F#m Bm E7
e-------------------0------0----------0-----------0------2----------0--------
b-6---4---2---0--------2------2---3-----3-2--0-------2------2---3-----3-2--0-
g-7---5---3---1--------------------------------------------------------------
d----------------------------------------------------------------------------
a----------------------------------------------------------------------------
e----------------------------------------------------------------------------

A C#m A C#m
e-5----4----5----4--
b-5----5----5----5--
g-6----6----6----6--
d-------------------
a-------------------
e-------------------
[/tab]

#12 wafffle

wafffle
  • Moderator
  • PipPipPipPipPipPipPipPipPip
  • 47,580 posts
  • Gender:Not Telling
  • Original Name: springwaffle

Posted 14 April 2010 - 02:01 PM

OUT OF LIMITS

[tab]
e----15-16-15----15-16-15----15-16-15----15-16-15-
b-17----------17----------17----------17----------
g-------------------------------------------------
d-------------------------------------------------
a-------------------------------------------------
e-------------------------------------------------

Guitar 1 continues playing that while Guitar 2 plays:

E G A B E G A B x3
e---------------------|--------------|
b---------------------|--------------|
g---------------------|--------------|
d-2----5----7----9----|-2--5--7--9---|
a-2----5----7----9----|-2--5--7--9---|
e-0----3----5----7----|-0--3--5--7---|

e---------------------------------
b---------------------------------
g---------------------------------
d----5-7-5-7b-7-5-7b-7-5-77-5---5- x3
a-/7--------------------------7---
e---------------------------------

G B
e----------------------------------
b----------------------------------
g----------------------------------
d-5--5-5-5--5-5-5--9--9-9-9--9-9-9-
a-5--5-5-5--5-5-5--9--9-9-9--9-9-9-
e-3--3-3-3--3-3-3--7--7-7-7--7-7-7-

Then Guitar 1 plays some lead part I dont know while Guitar 2 plays:

E G A B x3 G B
e-------------|----------------------------------
b-------------|----------------------------------
g-------------|----------------------------------
d-2--5--7--9--|-5--5-5-5--5-5-5--9--9-9-9--9-9-9-
a-2--5--7--9--|-5--5-5-5--5-5-5--9--9-9-9--9-9-9-
e-0--3--5--7--|-3--3-3-3--3-3-3--7--7-7-7--7-7-7-

e-5-5-2-5-2--5-5-2-5-2--7-7-3-7--7-9--7-9--10-9-
b-----------------------------------------------
g-----------------------------------------------
d-----------------------------------------------
a-----------------------------------------------
e-----------------------------------------------

e-6-6-3-6-3--6-6-3-6-3--8-8-4-8--8-10--10-8--8-8-
b------------------------------------------------
g------------------------------------------------
d------------------------------------------------
a------------------------------------------------
e------------------------------------------------

Move everything up to F.

F G# A# C F G# A# C x3 G# C
e---------------------|--------------|-----------------------------------------
b---------------------|--------------|-----------------------------------------
g---------------------|--------------|-----------------------------------------
d-3----6----8----10---|-3--6--8--10--|-6--6-6-6--6-6-6--10--10-10-10--10-10-10-
a-3----6----8----10---|-3--6--8--10--|-6--6-6-6--6-6-6--10--10-10-10--10-10-10-
e-1----4----6-----8---|-1--4--6--8---|-4--4-4-4--4-4-4---8---8--8--8---8--8--8-

F
e----16-17-16----16-17-16----16-17-16----16-17-16-
b-18----------18----------18----------18---------- f
g------------------------------------------------- a
d------------------------------------------------- d
a------------------------------------------------- e
e-------------------------------------------------
[/tab]

#13 wafffle

wafffle
  • Moderator
  • PipPipPipPipPipPipPipPipPip
  • 47,580 posts
  • Gender:Not Telling
  • Original Name: springwaffle

Posted 14 April 2010 - 02:08 PM

PIPELINE

[tab]
Em
e------|-------------------|------------------------------------------
b------|*-----------------*|------------------------------------------
g------|-------------------|------------------------------------------
d------|-------------------|----0--2--0-2-4-2-0-2--4--2-4--2--0-2-0---
a------|*---2---2---2---2-*|-2--------------------------------------2-
e-19\0-|--0---3---0---3----|------------------------------------------
tr..

Am
e--------7-----------------------------------------------------8--12-10-8-
b-----8----10-8---------------------------------------------10------------
g---9--------------0--2--0-2-4-2-0-2--4--2-4--2--0-2-0----9---------------
d-9-------------2--------------------------------------2------------------
a-------------------------------------------------------------------------
e-------------------------------------------------------------------------

B C B C B
e-----------------------------------------------------------------
b-----------------------------------------------------------------
g-----------------------------------------------------------------
d-4-444-4-44-5-555-5-55-4-444-4-44-5-555-5-55-4---4--4--4---4--4--
a-2-222-2-22-3-333-3-33-2-222-2-22-3-333-3-33-2-0-2-020-2-0-2-020-
e-----------------------------------------------------------------

Am________ Am_________ G F G
| 1 & 3 | 2
e-----------|---------------0---------------------------------------------------
b-----------|-1----------1----3-1-0----------0--3-1-0---------------1-0---0-----
g-----------|---2-2--2-2------------0-0--0-0----------2----------2------2---0-0-
d-2---2--2--|-------------------------------------------3-3--3-3----------------
a-0---0--0--|-------------------------------------------------------------------
e---3---3-3-|-------------------------------------------------------------------
^ go back to the beginning of the song

Am G F E
e----------------------------0-----------------------------------------------
b-----0--3-1-0-1----------1----3-1-0----------0--3-1-0---------------1-0-----
g-0-0------------2-2--2-2------------0-0--0-0----------2----------2------2-1-
d--------------------------------------------------------3-3--3-3------------
a----------------------------------------------------------------------------
e----------------------------------------------------------------------------

The first time that repeated part is played 8 times, the second and
third times only 6. On the third time around end with this:

Em
e----0~~~~~~~
b----0~~~~~~~
g----0~~~~~~~
d----2~~~~~~~
a----2~~~~~~~
e-19/0~~~~~~~
tr
[/tab]

tr = tremolo picking
~ = vibrato (use whammy bar)

#14 wafffle

wafffle
  • Moderator
  • PipPipPipPipPipPipPipPipPip
  • 47,580 posts
  • Gender:Not Telling
  • Original Name: springwaffle

Posted 14 April 2010 - 02:12 PM

RAP CITY

[tab]
e---------------------------------
b---------------------------------
g---------------------------------
d---------------------------------
a--------------------------------- x4
e-3-3-3-3-2-2-2-2-1-1-1-1-0-0-0-0-

e-0~~~0-3---0-----0h2p0---------0----------------------
b-0~~~--------4-----------1---3---0---1-0--------------
g-0~~~------------------------------------2-0----0-----
d-2~~~----------------------------------------4----4-2-
a-2~~~-------------------------------------------------
e-0~~~-------------------------------------------------

e-0~~~0-3/7---3-2---3-5-3-------0----------------------------------------
b-0~~~----------------------1-3----0-1-3----0-1------0--1-0--------------
g-0~~~------------------------------------2------0-2--------2-0----0-----
d-2~~~----------------------------------------------------------4----4-2-
a-2~~~-------------------------------------------------------------------
e-0~~~-------------------------------------------------------------------

e|------------------------------------------------------
b|*-----------------------------------------------------
g|--------0---------------------------------------------
d|------2-----2-1---2h4p2-------0h2---------------------
a|*-2-----------------------3------2---3-2-0------------
e|-------------------------------------------3-2--3-2-0-
tr..............................

e-----------------------------------------------------------------------
b--------0--------------------------------------------------------------
g------0-----0-----0-2-0------------------------------------------------
d----2---------4-------------0-2------0---------------------------------
a-2------------------------3------2-3----0-2-3----0-2--3-2-0------------
e-----------------------------------------------3------------3-2--3-2-0-
tr....................

e-7---8---7----------------------------5---7---5-------------------------
b------------------------------------------------------------------------
g-------------------------2-2-4-4-2----------------------------0-0-2-2-0-
d---------------------2-2----------------------------------0-0-----------
a-------------0-0-3-3----------------------------------2-2---------------
e--------------------------------------------------3-3-------------------

e-2---5---3---------------------------7----7---7---7--|
b----------------------------------------------------*|
g--------------------------------------------0--------|
d-------------------------2-2-4-4-2------7-------4----|
a---------------------2-2----------------------------*|
e-------------0-0-3-3---------------------------------|

e-0~~~0-3---0-----0h2p0---------0----------------------
b-0~~~--------4-----------1---3---0---1-0--------------
g-0~~~------------------------------------2-0----0-----
d-2~~~----------------------------------------4----4-2-
a-2~~~-------------------------------------------------
e-0~~~-------------------------------------------------

e-0~~~0-3/7---3-2---3-5-3-------0------------------------------------
b-0~~~----------------------1-3----0-1-3----0-1------0--1-0----------
g-0~~~------------------------------------2------0-2--------2-0----0-
d-2~~~----------------------------------------------------------4----
a-2~~~---------------------------------------------------------------
e-0~~~---------------------------------------------------------------
x3
e|--------------|-0~~~~
b|*------------*|-0~~~~
g|--------------|-0~~~~
d|--------------|-2~~~~
a|*------------*|-2~~~~
e|--3--2--1--0--|-0~~~~
[/tab]

tr = tremolo picking
~ = vibrato (use whammy bar)

#15 wafffle

wafffle
  • Moderator
  • PipPipPipPipPipPipPipPipPip
  • 47,580 posts
  • Gender:Not Telling
  • Original Name: springwaffle

Posted 14 April 2010 - 02:16 PM

SECRET AGENT MAN

[tab]
Intro
e---0---0---0-----0---0---0-
b-0---1---1---1h2---1---1---
g---------------------------
d--------------------------- x4
a---------------------------
e---------------------------

Verse
e-----------------------------0-----0-0-
b-----------------------------0-0-3-----
g-----0-4-2-2p0h2p0-----0---------------
d-2-2---------------2-2---2-------------
a---------------------------------------
e---------------------------------------

e------------------------------------------------
b-----------------3---4--------3---5-5-5p3-------
g-----0-2p0-4-4-4---4---4----4---4---------4p0h4-
d-2-2--------------------------------------------
a------------------------------------------------
e------------------------------------------------

e------------------------------------------------------------
b--------------------3---------------------------------------
g-2p0h2-2p0h2p0----4---2p0-2-2---------0-4-2-2p0-2-2-----0---
d---------------2--------------2p0-2-2---------------2-2---2-
a------------------------------------------------------------
e------------------------------------------------------------

Chorus
e---------2-0------0--
b----3--------3-------
g-/4------------------
d--------------------- x2
a---------------------
e---------------------
Se-cret A - gent Man

e----------------------------------------------
b----------------------------------------------
g-/4-2p0h2-2p0h2-2p0h2-2p0h2p0---------0-2p0/4- play both riffs again
d------------------------------2p0-2-2--------- and then play the first
a---------------------------------------------- one once
e----------------------------------------------

Repeat the whole thing again. Second time only play the intro twice. Fade out playing intro.
[/tab]

#16 wafffle

wafffle
  • Moderator
  • PipPipPipPipPipPipPipPipPip
  • 47,580 posts
  • Gender:Not Telling
  • Original Name: springwaffle

Posted 14 April 2010 - 03:32 PM

WALK DON'T RUN

[tab]
A A A G G G F F F E
e|--5-5-5--3-3-3--1-1-1--0--|
b|*-5-5-5--3-3-3--1-1-1--0-*|
g|--6-6-6--4-4-4--2-2-2--1--|
d|--7-7-7--5-5-5--3-3-3--2--|
a|*-7-7-7--5-5-5--3-3-3--2-*|
e|--5-5-5--3-3-3--1-1-1--0--|

e---|---------------------------
b---|*-------------------1--0---
g---|--2-------------0-2------2-
d-2-|----------0-2-3------------
a---|*---0-2-3------------------
e---|---------------------------

e----------------------------------------------------
b----------------------------------------------------
g-------------0-2-0----------------------------------
d-------0-2-3-------3-2-2-1-2--0-2-3-2-0---0h2p0---0-
a-0-2-3----------------------------------3-------3---
e----------------------------------------------------

__________________ _________________
| 1 | 2
e-------------------|------------------
b------------------*|------------------
g-1--1-1-1-1-1-1-1--|------------------
d-2--2-2-2-2-2-2-2--|------------0-2-3-
a------------------*|-3----0-2-3-------
e-------------------|----3-------------

G G C C C C C C Am Am Am
e-------------------------0----0--0w-
b-3w--3---1--1-1-1-1-1----1----1--1w-
g-0w--0---0--0-0-0-0-0----2----2--2w-
d-0w--0---2--2-2-2-2-2----2----2--2w-
a-------3-3--3-3-3-3-3--0-0--0-0--0w-
e------------------------------------

Am
e----------------------------0-----------
b--------------0-----0-------1-----------
g-2-----2--------0------0----2-----------
d---3------3-------0------0--2--/2-0-----
a-----3------3---------------0-------3-2-
e----------------------------------------

e---------------------------
b--------------------1--0---
g--2-------------0-2------2-
d----------0-2-3------------
a----0-2-3------------------
e---------------------------

*
e-----------------------------|---------------------
b-----------------------------|---------------------
g-------------0-2-0-----------|---------------------
d-------0-2-3-------3-2-2-1-2-|-0-2-3-2-0---0h2p0---
a-0-2-3-----------------------|-----------3-------3-
e-----------------------------|---------------------

C G G C
e-------------
b-1---3--3--1-
g-0---0--0--0-
d-2---0--0--2-
a-3---------3-
e-------------

Repeat entire song until you get to the * then play this to end:

C C F F C
e----------------------------
b------------1--1--1--1--8w--
g------------0--0--2--2--9w--
d-1-2-3-2-0--2--2--3--3--10w-
a------------3--3------------
e----------------------------
[/tab]

w = whammy bend

#17 wafffle

wafffle
  • Moderator
  • PipPipPipPipPipPipPipPipPip
  • 47,580 posts
  • Gender:Not Telling
  • Original Name: springwaffle

Posted 23 May 2010 - 02:31 PM

TEQUILA

[tab]
e|-----------------------------------------------|
b|*------------------0--------------------0-----*|
g|-----------0--0-2----2-0-2-0---0-2--2-0---0----|
d|--------2--------------------2--------------2--|
a|*----0----------------------------------------*|
e|--0--------------------------------------------|

e------------------------------------------------------------------------------------
b----------0---------------------0-----------------------0--------------------0------
g---2--2-0----0-2---------2--2-0---0----------2--0--0-2----2-0-2-0---0-2--2-0---0----
d-2----------------2----2-------------2----------------------------2---------------2-
a------------------------------------------0-----------------------------------------
e------------------------------------------------------------------------------------

e----------0------------------------------5----5-------12-10--7-10-9--5-9-7----5--5---7-----
b-2-2-2------3--0-3-2----2-0----0------------5---5--12-----------------------5------8---8-5-
g----------------------2------0---0---------------------------------------------------------
d------------------------------------2------------------------------------------------------
a-------------------------------------------------------------------------------------------
e-------------------------------------------------------------------------------------------

e-5--5---7----5---------5--5---7--------5--5---7----5--7-5---5-------5--5---7-----
b------8----8----5----5------8---8-5---------8----8--------8---8-5-8------8---8-5-
g---------------------------------------------------------------------------------
d---------------------------------------------------------------------------------
a---------------------------------------------------------------------------------
e---------------------------------------------------------------------------------

e-0-2--8----5\----9\--0-2--8----5\----9\--0-2-5-8----5\----9\----7-7-7-7-7--7----
b------7----5\---10\-------7----5\---10\--------7----5\---10\----7-7-7-7-7--7--9-
g------------------------------------------------------------------------------9-
d--------------------------------------------------------------------------------
a--------------------------------------------------------------------------------
e--------------------------------------------------------------------------------

e-----------------------------------------------------------------------------------
b----------0---------------------0--------------------------------------------------
g---2--2-0----0-2---------2--2-0---0------------------------------------------------
d-2----------------2----2-------------2---------------------------------------------
a------------------------------------------0--0-------0--2-0---0-------0--0---2-----
e------------------------------------------------3--3--------3---3-0-3------3---3-0-

e----------0------------------------------5----5-------12-10--7-10-9--5-9-7----5--5---7-----
b-2-2-2------3--0-3-2----2-0----0------------5---5--12-----------------------5------8---8-5-
g----------------------2------0---0---------------------------------------------------------
d------------------------------------2------------------------------------------------------
a-------------------------------------------------------------------------------------------
e-------------------------------------------------------------------------------------------

e------------------------------------------------------------------------------------
b----------0---------------------0-----------------------0--------------------0------
g---2--2-0----0-2---------2--2-0---0----------2--0--0-2----2-0-2-0---0-2--2-0---0----
d-2----------------2----2-------------2----------------------------2---------------2-
a------------------------------------------0-----------------------------------------
e------------------------------------------------------------------------------------

e-0-2--8----5\----9\--0-2--8----5\----9\--0-2-5-8----5\----9\----7-7-7-7-7--7----
b------7----5\---10\-------7----5\---10\--------7----5\---10\----7-7-7-7-7--7--9-
g------------------------------------------------------------------------------9-
d--------------------------------------------------------------------------------
a--------------------------------------------------------------------------------
e--------------------------------------------------------------------------------

e---------------------------------------------------------------------------------
b--------0---------------------0--------------------------------------------------
g-2--2-0----0-2---------2--2-0---0------------------------------------------------
d----------------2----2-------------2---------------------------------------------
a----------------------------------------0--0-------0--2-0---0-------0--0---2-----
e----------------------------------------------3--3--------3---3-0-3------3---3-0-

e----------------------------------------------------0----------------------------------
b--------------------------------------------------0---3--0-3-2----2-0-----------0------
g----------------------------------------2----2------------------2--------2--2-0---0----
d----------2-0----0-------------------------2---2-----------------------2-------------2-
a-4-4-4---------2---4--0-4-2----2-------------------------------------------------------
e-----------------------------3---3-0---------------------------------------------------

e------------------------------------------------------------------------------------
b----------0---------------------0-----------------------0--------------------0------
g---2--2-0----0-2---------2--2-0---0----------2--0--0-2----2-0-2-0---0-2--2-0---0----
d-2----------------2----2-------------2----------------------------2---------------2-
a------------------------------------------0-----------------------------------------
e------------------------------------------------------------------------------------

e|------------------------------------------------|
b|*----------------------------------------------*|
g|------------------------------------------------|
d|--7-7-5--7-7--5-5-5-5-5--7-7-5--7-5--5-5-5-5-5--|
a|*-7-7-5--7-7--5-5-5-5-5--7-7-5--7-5--5-5-5-5-5-*|
e|--5-5-3--5-5--3-3-3-3-3--5-5-3--5-3--3-3-3-3-3--|

e--------------------------------
b--------------------------------
g--------------------------------
d-7-7-5--7-7--5-5-5-5-5--7-7-5-7-
a-7-7-5--7-7--5-5-5-5-5--7-7-5-7-
e-5-5-3--5-5--3-3-3-3-3--5-5-3-5-
[/tab]

#18 wafffle

wafffle
  • Moderator
  • PipPipPipPipPipPipPipPipPip
  • 47,580 posts
  • Gender:Not Telling
  • Original Name: springwaffle

Posted 23 May 2010 - 02:34 PM

THE FOURTH DIMENSION

[tab]
x3
e|--1----3-------0--0--|
b|*-3----3-1-3---1--1-*|
g|--2----------2-0--0--|
d|--0------------------|
a|*-------------------*|
e|---------------------|

e-5---x5-4-3---3-------0--0--1--------------------------
b-5---x5-4-3---3-1-3---1--1--3--------------------------
g-6---x6-4-3---------2-0--0--2----------0---------------
d-7---x7-6-5-----------------0--------0---3-0---------0-
a-7---x7-6-5----------------------0-3---------0-3--3----
e-5---x5-4-3--------------------------------------------

e-3-------0--0--1------------------------5---x5-4-3-
b-3-1-3---1--1--3------------------------5---x5-4-3-
g-------2-0--0--2----------0-------------6---x6-4-3-
d---------------0--------0---3-0---------7---x7-6-5-
a--------------------0-3---------0-3--3--7---x7-6-5-
e----------------------------------------5---x5-4-3-

e--------------------------3-------0--0--1-
b--------------------------3-1-3---1--1--3-
g-------0------------------------2-0--0--2-
d-----0---3-0---------0------------------0-
a-0-3---------0-3--3-----------------------
e------------------------------------------

x6
e|--/8-10-10-10--|-/8-10-/8-10-/8-10-/8-10--8----x8--7-6---x6-5-4---x4-4-3--3--3-
b|*-/8-10-10-10-*|-/8-10-/8-10-/8-10-/8-10--8----x8--7-6---x6-5-4---x4-4-3--3--3-
g|---------------|--------------------------9----x9--8-7---x7-6-5---x5-5-4--4--4-
d|---------------|--------------------------10---x10-9-8---x8-7-6---x6-6-5--5--5-
a|*-------------*|--------------------------10---x10-9-8---x8-7-6---x6-6-5--5--5-
e|---------------|--------------------------8----x8--7-6---x6-5-4---x4-4-3--3--3-

e--------------------------3-------0--0--1------------------------5---x5-4-3-
b--------------------------3-1-3---1--1--3------------------------5---x5-4-3-
g-------0------------------------2-0--0--2----------0-------------6---x6-4-3-
d-----0---3-0---------0------------------0--------0---3-0---------7---x7-6-5-
a-0-3---------0-3--3--------------------------0-3---------0-3--3--7---x7-6-5-
e-----------------------------------------------------------------5---x5-4-3-

e--------------------------3-------0---0---1-
b--------------------------3-1-3---1---1---3-
g-------0------------------------2-0---0---2-
d-----0---3-0---------0--------------------0-
a-0-3---------0-3--3-------------------------
e--------------------------------------------
[/tab]




0 user(s) are reading this topic

0 members, 0 guests, 0 anonymous users


Please consider donating to GuitarZone.com.
With more and more people using ad blocking add-ons for browsers, ad revenue has plummeted.
If you can spare even US$5 it would mean a lot to help pay for GZ's monthly server bill.
Thank you to all. Cheers! --Rob



Method #1: PayPal



Click 'Donate' above
to donate with any
major credit card or
existing PayPal funds.


E-mail on record with PayPal
[ ]



Method #2: Bitcoin


Option A )  Scan Bitcoin QR Code


Scan above box with mobile phone, or click...



Option B )  Copy and Paste Bitcoin Address

  13NA7exoZVPGBAxnKXcQAz35JQ5PvnhYDE  


Copy above address and paste into Bitcoin app...



Learn more about Bitcoin...