Jump to content


Misc - Television Themes


  • Please log in to reply
11 replies to this topic

#1 wafffle

wafffle
  • Moderator
  • PipPipPipPipPipPipPipPipPip
  • 47,580 posts
  • Gender:Not Telling
  • Original Name: springwaffle

Posted 14 April 2010 - 04:10 PM

A
Adventure Time (chords)
B
Bananas In Pajamas guitar tab
C

D

DuckTales (GUITAR TAB)

E

F

G

H

I

Inspector Gadget (GUITAR TAB)

J

K

L

LEXX - Brunnen-G Battle Hymn (GUITAR TAB)
Looney Tunes (GUITAR TAB)

M

Mighty Morphin Power Rangers (BASS TAB)
Munsters, The (GUITAR TAB)

N

O

P

Popeye (GUITAR TAB)
Powerpuff Girls, The (GUITAR TAB)

Q

R

S

T

Tiny Toon Adventures (GUITAR TAB)

U

V

W

X

Y

Z

#2 wafffle

wafffle
  • Moderator
  • PipPipPipPipPipPipPipPipPip
  • 47,580 posts
  • Gender:Not Telling
  • Original Name: springwaffle

Posted 14 April 2010 - 04:37 PM

DUCKTALES

[tab]
Intro
e-------------------------
b-------------------------
g-------------------------
d----2----2-----2------2--
a-------------------------
e-0----0-----0----0--0----

Verse 1
e-----------------------------------------------------------------------
b-----------------------------------------------------------------------
g-----------------------------------------------------------------------
d-------------0-0---------------------------------0-0--------0-----0----
a-------2--4------4-2-0--0-----0------------2--4------4-2-0-----4-----4-
e-0--4----------------------4-----4---0--4------------------------------
Life is like a hurri-cane...

e----------------------------------
b----------------------------------
g-------------------------1--------
d-------------------2--4-----4-2---
a----0--4-4--2---4---------------4-
e-2--------------------------------
Might solve a mystery...

Chorus 1 C D
e|--------------|-------------------|--------
b|*--------0----|------------------*|--------
g|-----------1--|-------------------|--------
d|--2-2--2------|--2-0---0-2-0---0--|-2-2----
a|*-2-2---------|------3-------3---*|-2-2----
e|--0-0---------|-------------------|-0-0----

Verse 2
e---------------------------------------------------------------------
b---------------------------------------------------------------------
g------1---------------------1-----1--2--1-------------1--3--1-----1--
d-222-----2---------2---2-2-----2-----------2---4-4-4-----------4-----
a------------2-2-4----------------------------------------------------
e---------------------------------------------------------------------
DDD-Danger, watch behind you...

Chorus 2 D E x3
e|--------------|-------------------|---------------
b|*--------2----|------------------*|--------2------
g|-----------3--|-------------------|----------3----
d|--4-4--4------|--4-2-0-2-4-2-0-2--|-4-4--4-----4--
a|*-4-4---------|------------------*|-4-4--------4--
e|--2-2---------|-------------------|-2-2--------2--
[/tab]

#3 wafffle

wafffle
  • Moderator
  • PipPipPipPipPipPipPipPipPip
  • 47,580 posts
  • Gender:Not Telling
  • Original Name: springwaffle

Posted 14 April 2010 - 04:45 PM

INSPECTOR GADGET

[tab]
Intro
e--------------------------------------------------------------------
b---------------------------------------------------0~~~-------------
g----------------------2-1~~~---------------------2-----2p1----0-----
d-------0-2--------0-2-------------0-2--------0-2-----------2----4-0-
a-0-2-3------0-2-3-----------0-2-3------0-2-3------------------------
e--------------------------------------------------------------------

Intro (contd)
e-----------------------------
b-----------------------------
g-2p1---0---------------------
d-----2---4-0-3-2-----2-0-----
a-----------------2-3-----3-2-
e-----------------------------

Verse 1 A E A
e-------------------------------------------------------------------
b-------------------------------------------------------------------
g--------------------------------2-1----------------------2----9-14-
d-------0-2---1---0----------0-2------------0-2---1---0---2----9-14-
a-0-2-3-----3---2---3--0-2-3----------0-2-3-----3---2---3-0----7-12-
e-------------------------------------------------------------------

Fill
e-------5---5-8\-
b-6---6---6------
g---5------------
d----------------
a----------------
e----------------

Verse 2
e-------------------------------------------------------------------------
b-------------------------------------------------------------------------
g--------------------------------2-1--------------------------------------
d-------0-2---1---0----------0-2------------0-2---1---0-------------------
a-0-2-3-----3---2---3--0-2-3----------0-2-3-----3---2---3-----------------
e---------------------------------------------------------1-0-1-0-5-4-8-7-

Bridge (Go Gadget! Go!)
e-5------5------------------------5------5------------------------
b----6-8----6-8-8-6-5---6-6-5--------6-8----5-8-8-6-5---5-5-------
g---------------------7-------7-5---------------------7-----7-5-4-
d-----------------------------------------------------------------
a-----------------------------------------------------------------
e-----------------------------------------------------------------

Verse 3
e-----------------------------------------------------------------------------
b-----------------------------------------------------------------------------
g--------------------------------2-1------------------------------------------
d-------0-2---1---0----------0-2------------0-2---1---0-----------------------
a-0-2-3-----3---2---3--0-2-3----------0-2-3-----3---2---3-----------------8-7-
e---------------------------------------------------------1--0--5--4--8-7-----

End E A
e----------------------
b----------------------
g--------------2-------
d------------2-2-------
a-0----------2-0-------
e---4-3-2-1--0-----1r--
[/tab]

r = let ring

#4 wafffle

wafffle
  • Moderator
  • PipPipPipPipPipPipPipPipPip
  • 47,580 posts
  • Gender:Not Telling
  • Original Name: springwaffle

Posted 14 April 2010 - 04:51 PM

LOONEY TUNES

[tab]
e-0-----------0-----0------------------------------------------------
b----3--1--3-----4-----1--3-3-3-3----3--1--0--1--3--2--3--0--1-1-1-1-
g--------------------------------------------------------------------
d--------------------------------------------------------------------
a--------------------------------------------------------------------
e--------------------------------------------------------------------

e-------------------------------------------------------
b-------------------------------------------------------
g-------------------------------------------------------
d-------------------------------------------------------
a-------------------5-5-5-5---------------------7-7-7-7-
e-3h4h5p4-3h4h5p4-3-----------3h4h5p4-3h4h5p4-3---------

e-12--------------12------12--------------------------------10--12--15-
b-----15--13--15------16------13--15-15-15-15----10--9--10-------------
g----------------------------------------------------------------------
d----------------------------------------------------------------------
a----------------------------------------------------------------------
e----------------------------------------------------------------------
[/tab]

#5 wafffle

wafffle
  • Moderator
  • PipPipPipPipPipPipPipPipPip
  • 47,580 posts
  • Gender:Not Telling
  • Original Name: springwaffle

Posted 14 April 2010 - 04:59 PM

MIGHTY MORPHIN POWER RANGERS

[tab]
Intro
g------------------------------------
d--------------------2---------------
a----------------------3-2-0-2-0-----
e-0--0--0--0--0--0---------------3-1-

g|--------------------------------|
d|*------------------------------*|
a|*--------------------------0-2-*|
e|--0-0--0-0-0--0-0-0--0-3-0------|

g-----------------------------------------------------0-------0---
d-----2-------2---0-0-4-0-0-0-4-0-----0-------0---2-2---2-0-0---0-
a-3-3---3-3-3---3-----------------2-2---2-2-2---2-----------------
e-----------------------------------------------------------------

g-----------------------------------
d-----2-------2-------2-------2-----
a-3-3---3-3-3---3-3-3---3-3-3---3-2-
e-----------------------------------

Verse
g|-------------------------------------------------------------------|
d|*-------------------------------------2-------2---0-0-4-0-0-0-4-0-*|
a|*---------------------------------3-3---3-3-3---3-----------------*|
e|--0-0-3-0-0-0-3-0-0-0-3-0-0-0-3-0----------------------------------|

Chorus
g-----------------------------------------------------------
d-----3-------3-------3-------3---3--2--0-----0-------------
a------------------------------------------3-----3--1-------
e-1-1---1-1-1---1-1-1---1-1-1---1----------------------3--0-

Bridge
g-------------------------------------------------------------
d-------------------------------------------------------------
a-------------------------------------------------0-0-1-1-2-2-
e-0-0---0-0--0-0--0-0--0-0--0-0-0-1-1-2-2-3-3-4-4-------------
[/tab]

#6 wafffle

wafffle
  • Moderator
  • PipPipPipPipPipPipPipPipPip
  • 47,580 posts
  • Gender:Not Telling
  • Original Name: springwaffle

Posted 14 April 2010 - 05:11 PM

MUNSTERS, THE

[tab]
e------------------------------0------------------------------------------
b----------------------------0---1-0-----0--------------------------------
g----3-4------3-4------0---3---------2-----2-0--2-0----------3-4------3-4-
d-2--------2--------2----2--------------------------4-2-0-2--------2------
a-------------------------------------------------------------------------
e-------------------------------------------------------------------------

e------------0----------------------------------------
b----------0---1-0---------0--------------------------
g----0---3---------2---0-2---------------3-4------3-4-
d-2----2---------------------------1--2--------2------
a----------------------------2-2-4--------------------
e-----------------------------------------------------

e---------------------------15\-------/5--3-2-3-0-2---
b----3--3--3--1--0-1---0----------------------------4-
g----2--2--2---------2---0-------2--2-----------------
d-0--0--0--0---------------------2--2-----------------
a--------------------------------0--0-----------------
e-----------------------------------------------------

e------------0---------------------------------
b----------0---1-0-----0----------12-----------
g----0---3---------2-----2-0---------14-12-----
d-2----2----------------------2-------------14-
a----------------------------------------------
e----------------------------------------------

e-------------------------------------/5--3-2-3-0-2---
b----3--3--3p1p0---0-------0-3----------------------4-
g----2--2--------2---0---0-------2--2-----------------
d-0--0--0--------------0---------2--2-----------------
a--------------------------------0--0-----------------
e-----------------------------------------------------

e------------0-------------------------
b----------0---1-0-----0---------------
g----0---3---------2-----2-0---------9-
d-2----2----------------------2---9--9-
a---------------------------------9--7-
e---------------------------------7----
[/tab]

#7 wafffle

wafffle
  • Moderator
  • PipPipPipPipPipPipPipPipPip
  • 47,580 posts
  • Gender:Not Telling
  • Original Name: springwaffle

Posted 14 April 2010 - 05:23 PM

POPEYE

[tab]
e-----------------------------------------------------------------------------------------------------------
b-1-0-1--------------1-1--3-2-3--------------------0-1-0----------------------------------------------------
g------------0-----0------------------------0-0--2-------2-0-2-0-----------------------------------0--------
d--------------3-2-------------0-0--0-----0----------------------3-2-3-2-0---0---------------0-2-3---2------
a-------3-3---------------------------3-2----------------------------------3---3-2-0---0-2-3------------3-3-
e------------------------------------------------------------------------------------3----------------------

e------------------------------------------
b------------------------------------------
g-3-5-5-5---0-1--3-3-3-----0--1-1-1--------
d---------3------------1-3----------0--0-1-
a------------------------------------------
e------------------------------------------

e--------------------------------
b--------------------------4-----
g-0-3-3-3-1-0-3----3-5---5---5-3-
d----------------------6---------
a--------------------------------
e--------------------------------

e------------------------------------------
b---------4p3------------------------------
g-3-5---5------5-3-5-3-0---------5-3-1-----
d-----6------------------1-------------0h1-
a----------------------------3-1-----------
e------------------------------------------

e------------------------------------------
b------------------------------------------
g-3-5-5-5---0-1--3-3-3-----0--1-1-1------3-
d---------3------------1-3----------0--0---
a------------------------------------------
e------------------------------------------

e------------------------------------------
b------------------------------------------
g-3-5-5-5---0-1--3-3-3-----0--1-1-1--------
d---------3------------1-3----------0--0-1-
a------------------------------------------
e------------------------------------------

e---------------------------------------
b---------------4-----------------------
g-3-5-1-1-1-3-5----0-0--0-3-0-0-0-1-3-5-
d---------------------------------------
a---------------------------------------
e---------------------------------------

e------------------------------------------
b------------------------------------------
g-3-5-5-5---0-1--3-3-3-----0--1-1-1--------
d---------3------------1-3----------0--0-1-
a------------------------------------------
e------------------------------------------

e--------------------------------
b--------------------------4-----
g-0-3-3-3-1-0-3----3-5---5---5-3-
d----------------------6---------
a--------------------------------
e--------------------------------

e------------------------------------------
b---------4p3------------------------------
g-3-5---5------5-3-5-3-0---------5-3-1-----
d-----6------------------1-------------0h1-
a----------------------------3-1-----------
e------------------------------------------
[/tab]

#8 wafffle

wafffle
  • Moderator
  • PipPipPipPipPipPipPipPipPip
  • 47,580 posts
  • Gender:Not Telling
  • Original Name: springwaffle

Posted 14 April 2010 - 05:26 PM

POWERPUFF GIRLS, THE

[tab]
e---------3-6-5--3---------------------15-18-18--20--------------------
b-1--1--4-------------10h11h13--13--16-------------------------------1-
g---------------------------------------------------------------0-3--1-
d-------------------------------------------------------------1--------
a----------------------------------------------------/--3--3-----------
e----------------------------------------------------------------------

e-------------------
b-------------------
g------------0------
d------1--------4---
a-3-------3---------
e-------------------

e-----------------------6-5--3------6-5---------------------11-10----
b---------------------4-----------4--------10h11h13--13--11-------13-
g---------0-3-2--0--5-----------5------------------------------------
d-------1------------------------------------------------------------
a-3--3---------------------------------------------------------------
e--------------------------------------------------------------------
[/tab]

#9 wafffle

wafffle
  • Moderator
  • PipPipPipPipPipPipPipPipPip
  • 47,580 posts
  • Gender:Not Telling
  • Original Name: springwaffle

Posted 14 April 2010 - 05:33 PM

TINY TOON ADVENTURES

[tab]
e---------------------------------------------------
b-------------------------------------------0h1h2h3-
g---------------------------------1h2p1h2-3---------
d---------0h1p0h1-2h3p2h3-4h5p4h5-------------------
a-3h4p3h4-------------------------------------------
e---------------------------------------------------

e|-----------0----------2---0--------------0-------5-4-5-6-7-
b|*-3-0-3--3---3--3-0-3---3---3--3-1-3-3-3---3-3-3-----------
g|-----------------------------------------------------------
d|-----------------------------------------------------------
a|*----------------------------------------------------------
e|-----------------------------------------------------------

e-2---2--2-4-2--2---2-6-2-4-2--2---2-2-2---6-6-6-7-6-7-8-9-
b---4-------------4--------------4-------2-----------------
g----------------------------------------------------------
d----------------------------------------------------------
a----------------------------------------------------------
e----------------------------------------------------------

e----11-11----8-----------------------6--------------------------------9----10--|
b-11-------11---11-11-9-8-11----11----4-------8-9-----8-9-11--11-10-12---10----*|
g----------------------------10----8-----8-10------10---------------------------|
d-------------------------------------------------------------------------------|
a------------------------------------------------------------------------------*|
e-------------------------------------------------------------------------------|

e----------0--------3-7-3-0------7-6-7---0-2-3-5-6--5--3-
b-3-0-3--3---3--3-3---------3--3-------3-----------------
g--------------------------------------------------------
d--------------------------------------------------------
a--------------------------------------------------------
e--------------------------------------------------------

e-15----12--------------------------3-
b----15----15-15-13-12-15----15-----3-
g-------------------------14----12--0-
d-----------------------------------0-
a-----------------------------------2-
e-----------------------------------3-
[/tab]

#10 Audible

Audible

    Bastard of the Peace

  • GZ Regular
  • PipPipPipPipPipPip
  • 5,830 posts
  • Gender:Male
  • Location:Pasadena, TX
  • Original Name: Audible

Posted 24 April 2010 - 04:58 AM

ADVENTURE TIME


Adventure Time Theme
by Audible



G
Adventure time

D
C'mon, grab your friends

C                D
We'll go to very distant lands

     G
With Jake the Dog

    D
And Finn the Human

    C              D
The fun will never end

               G
It's Adventure Time!



#11 wafffle

wafffle
  • Moderator
  • PipPipPipPipPipPipPipPipPip
  • 47,580 posts
  • Gender:Not Telling
  • Original Name: springwaffle

Posted 20 May 2010 - 10:54 AM

LEXX - BRUNNEN-G BATTLE HYMN

[tab]
e--------------------------------------------------------
b--------------------------------------------------------
g----4------------4------0-------------5--4---2----------
d-2-----2------2-----2------4-2-0---2-----------5--4-2-4-
a--------------------------------------3--2---0----------
e-----------------------------------0-----------3--2-0-2-

e-------------------------------------------
b-------------------------------------------
g----6------2-------------7--6---4-2--------
d-4-----4------6-4-2---4--------------6-4-6-
a----4------0-------------5--4---2-0--------
e-2-----2------4-2-0---2--------------4-2-4-

e----------------------
b----------------------
g----7--6---4-2--------
d-4--------------6-4-4-
a----5--4---2-0--------
e-2--------------4-2-2-
[/tab]

#12 wooooogiecrisp

wooooogiecrisp

    breakfast of schmucks

  • Ombudsman
  • PipPipPipPipPipPipPipPipPipPip
  • 73,972 posts
  • Gender:Male
  • Location:nook
  • Donator:Yes, Once
  • Original Name: woggie

Posted 30 July 2010 - 03:59 PM

Bananas In Pajamas
[tab]
Bananas In Pajamas
Yes, I got very bored and tabed out the childern's TV show theme. Sorry I have no life.

E---------------------------------------------
B---------------------------------------------
G-12-11-12---12-12-11-12--12-14---------------
D--------------------------------14-14-14-14--
A---------------------------------------------
E---------------------------------------------

Bananas in pajamas are comming down the stairs

E---------------------------------------------
B---------------------------------------------
G-12-11-12---12-12-11-12--12-14---------------
D--------------------------------15-15-15-15--
A---------------------------------------------
E---------------------------------------------

Bananas in pajamas are comming down in pairs

E---------------------------------------------
B---------------------------------------------
G-14-13-14--14-13-14--14-16-------------------
D----------------------------16-16-16-16------
A---------------------------------------------
E---------------------------------------------

Bananas in pajamas are chasing teddybears

E---------------------------------------------
B----------------10-12------------------------
G-17/12-12-10-10-------12/17------------------
D---------------------------------------------
A----------------------------15-15-15-15------
E---------------------------------------------

'Cos on Tuesdays they will try to catch them unawares

tabbed by woggie[/tab]

Follow @McWoggie to the gates of Hell. We're gonna ding-dong ditch them!





0 user(s) are reading this topic

0 members, 0 guests, 0 anonymous users


Please consider donating to GuitarZone.com.
With more and more people using ad blocking add-ons for browsers, ad revenue has plummeted.
If you can spare even US$5 it would mean a lot to help pay for GZ's monthly server bill.
Thank you to all. Cheers! --Rob



Method #1: PayPal



Click 'Donate' above
to donate with any
major credit card or
existing PayPal funds.


E-mail on record with PayPal
[ ]



Method #2: Bitcoin


Option A )  Scan Bitcoin QR Code


Scan above box with mobile phone, or click...



Option B )  Copy and Paste Bitcoin Address

  13NA7exoZVPGBAxnKXcQAz35JQ5PvnhYDE  


Copy above address and paste into Bitcoin app...



Learn more about Bitcoin...