Jump to content


Lynyrd Skynrd


  • Please log in to reply
3 replies to this topic

#1 Nealio

Nealio

    Stuff

  • Ombudsman
  • PipPipPipPipPipPipPipPipPip
  • 35,503 posts
  • Gender:Male
  • Location:Dundalk, Ireland
  • Donator:Yes, Once
  • Original Name: nealmac

Posted 28 April 2010 - 07:28 AM

A
B
C
D
E
F
G
H
I
J
K
L
M
N
O
P
Q
R
S
Sweet Home Alabama Main Riffs Both Solos Tab
T
U
V
W
X
Y
Z

#2 Nealio

Nealio

    Stuff

  • Ombudsman
  • PipPipPipPipPipPipPipPipPip
  • 35,503 posts
  • Gender:Male
  • Location:Dundalk, Ireland
  • Donator:Yes, Once
  • Original Name: nealmac

Posted 28 April 2010 - 07:33 AM

Part 1:

Part 2:


#3 Nealio

Nealio

    Stuff

  • Ombudsman
  • PipPipPipPipPipPipPipPipPip
  • 35,503 posts
  • Gender:Male
  • Location:Dundalk, Ireland
  • Donator:Yes, Once
  • Original Name: nealmac

Posted 28 April 2010 - 07:37 AM

Solo 1:

Solo 2:


#4 Nealio

Nealio

    Stuff

  • Ombudsman
  • PipPipPipPipPipPipPipPipPip
  • 35,503 posts
  • Gender:Male
  • Location:Dundalk, Ireland
  • Donator:Yes, Once
  • Original Name: nealmac

Posted 28 April 2010 - 01:47 PM


Intro:

-------------------------------------------------

-------3---------3----------3--------------------

---------2---------0--------0---------------2p0--

-0-0------------------------0--0----0h2p0--------

------------3-3-------------2---0p2-------0------

-----------------------3-3--3--------------------



-----------------------------------------------------

------3-----------3----------3-----------------------

--------2-----------0--------0----0-2p0-0-4p0-0-5^7--

-0-0-------------------------0-----------------------

-----------3-3---------------2-----------------------

------------------------3-3--3-----------------------



-------------------------------------------------

-------3---------3----------3--------------------

---------2---------0--------0---------------2p0--

-0-0------------------------0--0----0h2p0--------

------------3-3-------------2---0p2-------0------

-----------------------3-3--3--------------------



-----------------------------------------------------

------3-----------3----------3-----------------------

--------2-----------0--------0----------0------------

-0-0-------------------------0-----------------------

-----------3-3---------------2----0h1/2--------------

------------------------3-3--3-----------------------



Verse:

       D        C9       G  

-------2-----------------3-------------------------

-------3--------3--------3-------------------------

-------2--------0--------0-----------0-------------

--0-0--0--------2--------0-------------0-----------

----------3-3---3--------2-----0h1/2-----0h2-------

------------------3-3----3-------------------------





       D        C9       G

-------2-----------------3-----3-3--3--------------

-------3--------3--------3-----3-3--3--------------

-------2--------0--------0-----0-0--0--------------

--0-0--0--------2--------0-----0-0--0--------------

----------3-3---3--------2-----2-2--2--------------

------------------3-3----3-----3-3--3--------------

Repeat



Bridge:

---------------------------------------

---------------------------------------

--------7-7---------5-5----------0----- x2

--------7-7---------5-5----------------

--7h8/9-----9---6h7-----7---0h1/2------

-----------------------------------3---

 

On the second time you play the bridge, put this at the end:



--------

--------

--------

------0-

--0h2---

--------



Verse:

       D        C9       G  

-------2-----------------3-------------------------

-------3--------3--------3-------------------------

-------2--------0--------0-----------0-------------

--0-0--0--------2--------0-------------0-----------

----------3-3---3--------2-----0h1/2-----0h2-------

------------------3-3----3-------------------------





       D        C9       G

-------2-----------------3-----3-3--3--------------

-------3--------3--------3-----3-3--3--------------

-------2--------0--------0-----0-0--0--------------

--0-0--0--------2--------0-----0-0--0--------------

----------3-3---3--------2-----2-2--2--------------

------------------3-3----3-----3-3--3--------------

Repeat



Chorus:

------------------------------------------------------

------------------------------------------------------

------------------------------------------------------

---7--7--9--7---5--5--7--5-----------------0h2p0------

---5--5--5--5---3--3--3--3---5--5-x-7--0h2-------3^---

-----------------------------3--3-x-3-----------------



---------------------------------------------------

---------------------------------------------------

--------------------------------0----0----0----0---

---7--7--9--7---5--5--7--5---0h2--0h2--0h2--0h2----

---5--5--5--5---3--3--3--3-------------------------

---------------------------------------------------



------------------------------------------------------

------------------------------------------------------

------------------------------------------------------

---7--7--9--7---5--5--7--5-----------------0h2p0------

---5--5--5--5---3--3--3--3---5--5-x-7--0h2-------3^---

-----------------------------3--3-x-3-----------------



----------------------------------------

----------------------------------------

----------------------------------------

---7--7--9--7---5--5--7--5--------------

---5--5--5--5---3--3--3--3---5--5-x-7---

-----------------------------3--3-x-3---



First Solo:



Play this chord pattern through the solo:



----------------------------------------------------

----------------------------------------------------

----------------------------------------------------

---7--7--9--7---5--5--7--5-------------------------- Repeat

---5--5--5--5---3--3--3--3---5--5-x-7--5-5-5-7--5---

-----------------------------3--3-x-3--3-3-3-3--3---



Lead:



 --15^-15-14-----------------------------------------------|

 ------------15-15~-----13p12------------------------------|

 --------------------12-------14p12-14---12-12-14p12-14^---|

 -------------------------------------14-------------------|

 ----------------------------------------------------------|

 ----------------------------------------------------------|



 ---------------------------------------------------------------------------------------|

 ---------------------------------------------------------8-----------------------------|

 --------12-14p12-14^-------------12-14---12-14^-12--9p7/9------------------------------|

 --12-14--------------12-12-13-14-------14------------------10p9h10p9----0(whammy bar)--|

 ---------------------------------------------------------------------10----------------|

 ---------------------------------------------------------------------------------------|



Verse:

       D        C9       G     C   F

-------2-----------------3----0--1---

-------3--------3--------3----1--1---

-------2--------0--------0----0--2---

--0-0--0--------2--------0----2--3---

----------3-3---3--------2----3--3---

------------------3-3----3-------1---





       D        C9       G

-------2-----------------3-----3-3--3--------------

-------3--------3--------3-----3-3--3--------------

-------2--------0--------0-----0-0--0--------------

--0-0--0--------2--------0-----0-0--0--------------

----------3-3---3--------2-----2-2--2--------------

------------------3-3----3-----3-3--3--------------



      D        C9       G  

-------2-----------------3-------------------------

-------3--------3--------3-------------------------

-------2--------0--------0-----------0-------------

--0-0--0--------2--------0-------------0-----------

----------3-3---3--------2-----0h1/2-----0h2-------

------------------3-3----3-------------------------





       D        C9       G

-------2-----------------3-----3-3--3--------------

-------3--------3--------3-----3-3--3--------------

-------2--------0--------0-----0-0--0--------------

--0-0--0--------2--------0-----0-0--0--------------

----------3-3---3--------2-----2-2--2--------------

------------------3-3----3-----3-3--3--------------



Chorus: Just repeat the first chorus.



Second solo: The same chords are played over this solo as the last.



 -----------------------------------------------------|

 -----------------------------------------------------|

 -----0----0--2^4r2p0-----------12--15^-14^-12---12~--|

 --0h2--2/5--0--------2/5~--/14---14-----------14-----|

 -----------------------------------------------------|

 -----------------------------------------------------|



 -------------------------------------------------|

 -------------------------------------------------|

 -------------------------------12---12-14p12--12-|

 --14-12-12--12-12--12-14-12-/14--14---------14---|

 -------------------------------------------------|

 -------------------------------------------------|



This part is really hard to hear, but here's my best shot:



 ------------------------------------------------------------------

 --17p12--12--17p12--12--16p12--12--16p12--12--16p12--12--16p12--12

 -------14---------14---------14---------14---------14---------14--

 ------------------------------------------------------------------

 ------------------------------------------------------------------

 ------------------------------------------------------------------



 ---------------------------------------------------------|

 ---------------------------------------------------------|

 --14p12--12--14p12--12--16p12--12--17p12--12--16p12--12--|

 -------14---------14---------14---------14---------14----|

 ---------------------------------------------------------|

 ---------------------------------------------------------|

The rest was easy to hear



 ------------------------------------------------15-15-15-15-15-15-15--|

 ---------------------------------------15-17-15-----------------------|

 ----------12--------12---12-14-16-14-16-------------------------------|

 --12--------14p12/14--14----------------------------------------------|

 ----13/14-------------------------------------------------------------|

 ----------------------------------------------------------------------|



 --13h15p13-12--12------12---12---12---12---12---12-----12-----|

 -------------15--15-15^--15^--15^--15^--15^--15^--13-12--15^--|

 --------------------------------------------------------------|

 --------------------------------------------------------------|

 --------------------------------------------------------------|

 --------------------------------------------------------------|



 --12--------------------------------------------------------------|

 ----15-12--12-----------------------------------------------------|

 ---------15--15-14-12---------------------------------------------|

 ---------------------14-12----------------------------------------|

 --------------------------14p12-10-10h12-12-12--10h12p10-10-12----|

 ----------------------------------------------12--------------12--|



 ---------------------------------------------------------------|

 --------------------------------------------15-17--15----------|

 -------------------------12--12-14--12-14/16-----16--16p14/16--|

 ----------12-14--12-12-14--14-----14---------------------------|

 --10-12/14-----14----------------------------------------------|

 ---------------------------------------------------------------|



 --------15-17^-17^-17^-17^-17-15--15--------------------------------|

 --15-17-------------------------17--17p15-12--12--------------------|

 --------------------------------------------15--15p14-12-14--12-12--|

 -----------------------------------------------------------14-------|

 --------------------------------------------------------------------|

 --------------------------------------------------------------------|

Now thats a solo



Bridge:



---------------------------------------------------|

---------------------------------------------------|

--------7-7---------5-5----------0------14^-14p12--|

--------7-7---------5-5---------------12-----------|

--7h8/9-----9---6h7-----7---0h1/2------------------|

-----------------------------------3---------------|



---------------------------------------|

---------------------------------------|

--------7-7---------5-5----------0-----| Ed plays some harmonics

--------7-7---------5-5----------------| here (not sure which)

--7h8/9-----9---6h7-----7---0h1/2------|

-----------------------------------3---|



Verse:

       D        C9       G  

-------2-----------------3-------------------------

-------3--------3--------3-------------------------

-------2--------0--------0-----------0-------------

--0-0--0--------2--------0-------------0-----------

----------3-3---3--------2-----0h1/2-----0h2-------

------------------3-3----3-------------------------





       D        C9       G

-------2-----------------3-----3-3--3--------------

-------3--------3--------3-----3-3--3--------------

-------2--------0--------0-----0-0--0--------------

--0-0--0--------2--------0-----0-0--0--------------

----------3-3---3--------2-----2-2--2--------------

------------------3-3----3-----3-3--3--------------

Repeat



Chorus:

------------------------------------------------------

------------------------------------------------------

------------------------------------------------------

---7--7--9--7---5--5--7--5-----------------0h2p0------

---5--5--5--5---3--3--3--3---5--5-x-7--0h2-------3^---

-----------------------------3--3-x-3-----------------



---------------------------------------------------

---------------------------------------------------

--------------------------------0----0----0----0---

---7--7--9--7---5--5--7--5---0h2--0h2--0h2--0h2----

---5--5--5--5---3--3--3--3-------------------------

---------------------------------------------------



------------------------------------------------------

------------------------------------------------------

------------------------------------------------------

---7--7--9--7---5--5--7--5-----------------0h2p0------

---5--5--5--5---3--3--3--3---5--5-x-7--0h2-------3^---

-----------------------------3--3-x-3-----------------



---------------------------------------------------

---------------------------------------------------

--------------------------------0----0----0----0---

---7--7--9--7---5--5--7--5---0h2--0h2--0h2--0h2----

---5--5--5--5---3--3--3--3-------------------------

---------------------------------------------------








0 user(s) are reading this topic

0 members, 0 guests, 0 anonymous users


Please consider donating to GuitarZone.com.
With more and more people using ad blocking add-ons for browsers, ad revenue has plummeted.
If you can spare even US$5 it would mean a lot to help pay for GZ's monthly server bill.
Thank you to all. Cheers! --Rob



Method #1: PayPal



Click 'Donate' above
to donate with any
major credit card or
existing PayPal funds.


E-mail on record with PayPal
[ ]



Method #2: Bitcoin


Option A )  Scan Bitcoin QR Code


Scan above box with mobile phone, or click...



Option B )  Copy and Paste Bitcoin Address

  13NA7exoZVPGBAxnKXcQAz35JQ5PvnhYDE  


Copy above address and paste into Bitcoin app...



Learn more about Bitcoin...