Jump to content


Satan's Pilgrims


  • Please log in to reply
1 reply to this topic

#1 wafffle

wafffle
  • Moderator
  • PipPipPipPipPipPipPipPipPip
  • 47,580 posts
  • Gender:Not Telling
  • Original Name: springwaffle

Posted 23 May 2010 - 02:05 PM

A

B

C

D

E

F

G

Godfather (GUITAR TAB)

H

I

J

K

L

M

N

O

P

Q

R

S

T

U

V

W

X

Y

Z

#2 wafffle

wafffle
  • Moderator
  • PipPipPipPipPipPipPipPipPip
  • 47,580 posts
  • Gender:Not Telling
  • Original Name: springwaffle

Posted 23 May 2010 - 02:14 PM

GODFATHER

[tab]
e|------1-0---1---0---------------1-0---1---0-----------------0-----------
b|*---3-----3---3---3---1-------3-----3---3---3-------------2---------2-3-
g|--2-----------------3---2---2-----------------2-1-0---0-3-------0-3-----
d|------------------------------------------------------------------------
a|*-----------------------------------------------------------------------
e|------------------------------------------------------------------------

e--------------------------|------------0-0----------------------------|
b-------------------------*|*-3-3-2-1-------3---------1---------------*|
g-----5-3-2-5-3-3-2-2------|------------------3-2---2---2-0---0-3-1-2--|
d---3----------------------|-------------------------------------------|
a-5-------------------4-5-*|*-----------------------------------------*|
e--------------------------|-------------------------------------------|

e-----------------------------------------------------------------------
b-----------------------------------------------------------------------
g-----------------------------------------------------------------------
d---0-3-2-0-3-0-2-0-----------0-3-2-0-3-0-2-0---------------2---------0-
a-0-----------------1-3-0---0-----------------0---------1-4-------1-4---
e-----------------------------------------------4-3---3---------3-------

e-------------------------|------------0-0----------------------------|
b-------------------------|*-3-3-2-1-------3---------1---------------*|
g-----5-3-2-5-3-3-2-2-----|------------------3-2---2---2-0---0-3-1-2--|
d---3---------------------|-------------------------------------------|
a-5-------------------4-5-|*-----------------------------------------*|
e-------------------------|-------------------------------------------|

e----10-13-12-10-13-10-12-10---------------10-13-12-10-13-10-12-10--------
b-10-------------------------11-13-10---10-------------------------10-9-8-
g-------------------------------------------------------------------------
d-------------------------------------------------------------------------
a-------------------------------------------------------------------------
e-------------------------------------------------------------------------

e------9-12--------9-10-|---------------------------------------|
b-8-11--------8-11------|*-------13-11-10-13-11-11-10-10-------*|
g-----------------------|-----10--------------------------------|
d-----------------------|--12----------------------------11-12--|
a-----------------------|*-------------------------------------*|
e-----------------------|---------------------------------------|

e----------------------------13-12-10-
b-------13-11-10-13-11-11-10----------
g----10-------------------------------
d-12----------------------------------
a-------------------------------------
e-------------------------------------
[/tab]

This is just the basic melody. There is a lot of tremolo picking throughout the song but this should help get you started.




0 user(s) are reading this topic

0 members, 0 guests, 0 anonymous users


Please consider donating to GuitarZone.com.
With more and more people using ad blocking add-ons for browsers, ad revenue has plummeted.
If you can spare even US$5 it would mean a lot to help pay for GZ's monthly server bill.
Thank you to all. Cheers! --Rob



Method #1: PayPal



Click 'Donate' above
to donate with any
major credit card or
existing PayPal funds.


E-mail on record with PayPal
[ ]



Method #2: Bitcoin


Option A )  Scan Bitcoin QR Code


Scan above box with mobile phone, or click...



Option B )  Copy and Paste Bitcoin Address

  13NA7exoZVPGBAxnKXcQAz35JQ5PvnhYDE  


Copy above address and paste into Bitcoin app...



Learn more about Bitcoin...