Jump to content


rupert_pupkin

Member Since 30 May 2001
Offline Last Active Jan 21 2011 07:52 PM
-----

Posts I've Made

In Topic: bohemian rhapsody for solo guitar

18 August 2009 - 02:20 AM

QUOTE (Vasquez @ Mar 10 2009, 05:01 PM) <{POST_SNAPBACK}>
im looking for a solo rendition of bohemian rhapsody. It's a song i learnt a few years ago, didnt play it in a while and now I've forgotten it all except the outro (which sounds amazing thats why i remembered it). It was featured in issue 130 of total guitar, but my copy was lent out to someone without me knowing and now its gone sad.gif. I was hoping someone with the issue could scan and email it to me


I don't think the following is from Total Guitar, but it is pretty good. Not by me. There's a lot of different time signatures in this.

CODE
                              Bohemian Rhapsody                                






                                                                            
E||----------7-----7-----|--7-----7-----7---------|--7---------7-----9-----|
B||----------9-----9-----|--9-----9-----9---------|--9---------9-----9-----|
G||----------11----11----|--11----11----11--------|--10--------10----11----|
D||----------13----13----|--13----13----13--------|--11--------11----13----|
A||----------------------|------------------------|------------------------|
E||----------------------|------------------------|------------------------|


                                                                          
--7-----6----4--------|--------------------------|------------------------|
--9-----7----6--------|--11----11----11----12----|--11--------------------|
--10----8----6--------|--11----11----11----13----|--11--------------------|
--11----9----9--------|--14----14----14----14----|--14--------9-----9-----|
----------------------|--16----16----16----16----|------------------------|
----------------------|--------------------------|--14--------14----14----|


                                                                    
--7--------7----9-----|--7-------------------|----------------------|
--7--------7----9-----|--7----9-----7--------|--4----4----4----4----|
--8--------8----11----|--8----9-----8--------|-----------------4----|
--9--------9----------|--9----11----9--------|------------4---------|
----------------------|-------13----9--------|-------6--------------|
----------------------|----------------------|--4-------------------|


                                                                    
----------------------|----------------------|----------------------|
-----------------4----|--4----4----5----7----|----------------------|
------------4---------|--4--------------4----|-------4----13--------|
-------4--------------|--7-------------------|-------4--------------|
----------------------|----------------------|----------------------|
--4-------------------|--7-------------------|--7-------------------|


                                                                            
-------------------------|--------12----------12----|-----------------------|
-------------------12----|--14----------12----------|--9----9-----9----9----|
-------------13----------|--14----------13----------|------------------9----|
-------14----------------|--------------------------|-------------9---------|
-------------------------|--------------------------|-------11--------------|
--0----------------------|--------------------------|--9--------------------|


                                                                      
-----------------------|----------------------|----------------------|
-------9---------------|--7----7h---9----7----|----------------------|
------------------9----|--9---------9---------|-------6----8----9----|
------------13---------|-------8--------------|-------8--------------|
-----------------------|--9-------------------|--9-------------------|
--9--------------------|----------------------|----------------------|


                                                                  
--8----8----7--------|--6----6----7--------|--8----8----7--------|
--8----8----7--------|--6----6----7--------|--8----8----7--------|
--9---------6--------|--7---------8--------|--9---------6--------|
---------------------|---------------------|---------------------|
---------------------|---------------------|---------------------|
---------------------|---------------------|---------------------|


                                                                    
--6----6----7--------|--4----4----4----4----|------------7---------|
--6----6----7--------|--5--------------5----|--7---------7---------|
--7---------8--------|------------4---------|--4---------4---------|
---------------------|-------6--------------|-------4---------4----|
---------------------|--7-------------------|--6-------------------|
---------------------|----------------------|----------------------|


                                                                    
----------------------|--2-------------------|----------------------|
--6----6----6----7----|----------------------|--5-------------------|
------------4---------|----------------------|-----------------3----|
-------6--------------|------------4----4----|------------2---------|
--5-------------------|-------4--------------|-------4--------------|
----------------------|--2-------------------|--2-------------------|


                                                                    
----------------------|----------------------|--4---------2---------|
--5-------------------|-----------------4----|----------------------|
------------3/---4----|--4---------4---------|----------------------|
-------2--------------|-------4--------------|-------4--------------|
----------------------|--2-------------------|--2-------------------|
--2-------------------|----------------------|-----------------2----|


                                                                      
----------------------|--4---------2---------|-----------------------|
-----------------4----|----------------------|--2h-4------------4----|
------------4---------|----------------------|-------------4---------|
-------4--------------|-------4--------------|--------4--------------|
--2-------------------|--2-------------------|--2--------------------|
----------------------|-----------------2----|-----------------------|


                                                                      
--4---------2---------|-----------------------|--6---------4---------|
----------------------|-------4--4------------|-----------------4----|
----------------------|--6---------------4----|----------------------|
-------4---------4----|-------------4---------|-------4--------------|
--2-------------------|-----------------------|----------------------|
----------------------|--4--------------------|--4-------------------|


                                                                        
------------------------|----------------------|-----------------------|
--5----7----5--------4--|-----------------4h---|--5----7---------5--4--|
------------------6-----|--6---------6---------|--4--------------------|
---------------6--------|-------6--------------|------------6----------|
--4---------------------|--4-------------------|--4--------------------|
------------------------|----------------------|-----------------------|


                                                                        
----------------------|------------------------|---------------------2--|
--2--------------2----|--2h-4------------2-----|--2h-4------------4-----|
--3---------3---------|--4----------4-------4--|-------------4----------|
-------2--------------|--------4---------------|--------4---------------|
----------------------|--2---------------------|--2---------------------|
--2-------------------|------------------------|------------------------|


                                                                          
--6---------4---------|-------------4--------|---------------------------|
--4---------4---------|--4-------------------|--12----12---------12--12--|
--4-------------------|--4-------------------|--9-----9------------------|
-------4--------------|--8----6--6-----------|--9------------------------|
----------------------|----------------------|---------------------------|
--4--------------4----|----------------------|--9-----------9------------|


                                                                      
------------------------|----------------------|----------------------|
--12----9---------------|----------5-----------|--5---------5---------|
--9----------9----8--6--|--6-------6-----------|--6---------4---------|
--9----------9----------|--6----6--------------|-------6---------6----|
------------------------|----------------------|--0-------------------|
--8----------7----------|--6----------6--------|------------4---------|


                                                                      
--4--4-----------------|--4--------------4h-5--|--4-------------------|
--5--5------------5----|--5---------7----------|--5--------------5----|
--4----------4---------|-------4----4----------|--4---------4---------|
--------6--------------|------------4----------|-------6--------------|
-----------------------|------------6----------|--4-------------------|
--0--------------------|--0--------------------|----------------------|


                                                                        
----------------------|------------------------|-----------------------|
----------------------|--10----9----9----------|-----------------------|
--8---------6---------|--11--------------11----|--11-------------------|
-------6--------------|--11--------------------|--11--------------9----|
--4--------------4/---|--9----------8----------|--7--------------------|
----------------------|------------------------|------------11---------|


                                                      
-------------------------|----------------------7-----|
-------7-----7-----9-----|--9----10--10-----10-----9--|
-------8-----8-----8-----|--8---------------8------9--|
--9----------------------|--7---------------7------9--|
-------------------------|----------------------------|
--7-------7-----7-----7--|--7------------7--7---------|


                                                                              
---------------------------|------------------------|--9--------------11--12--|
---------------------------|--12---------------9----|--9--------------9---9---|
------------11~-13--11--9--|--11---------11---------|--9---------9------------|
-------9-------------------|--------9---------------|-------9-----------------|
---------------------------|------------------------|-------------------------|
--0------------------------|--11--------------------|--9----------------------|


                                                        
--9-----11--12--9-----11--12--|--14---------------------|
--9-----9---9---9-----9---9---|--10----------10---------|
--9-------------9-------------|--9-----------9----------|
-------------------9----------|--------11---------------|
-----9------------------------|--9-----------------8----|
--9-------------9-------------|-------------------------|


                                                        
------------7--9---------|-----7------7-----------------|
--7--9--10-----7---------|--------10-----10--9-10-9--7--|
-------------------------|---------------8--------------|
--------------------6----|------------------------------|
--7------------6---------|------------------------------|
-------------------------|--7------------7--------------|


                                                      
--------------------------|--------------0-----4--5--|
---------------------7----|-----0-----4-----7--------|
--9--8-9-8-----------8----|--------6-----------------|
------------11--9----9----|--------------------------|
--------------------------|--------------------------|
--7-------------7---------|--0-----------0-----------|


                                                      
--7---------0-----4--5--7--|--9--------------11--12--|
-----0---4-----7-----------|--9--------------9---9---|
-------6-------------------|--9---------9------------|
---------------------------|-------9-----------------|
--6------------6-----------|-------------------------|
---------------------------|--9----------------------|


                                                          
--9-----11--12--9-----11--12--|--14----------------------|
--9-----9---9---9-----9---9---|--14----------14----------|
--9-------------9-------------|--14----------14----------|
-------------------9----------|--------14----------16----|
-----9------------------------|--------------------------|
--9-------------9-------------|--14----------------13----|


                                                        
------------------14--------|--------------------------|
------------------14--------|--10----------------10----|
--13--14----------14--------|--11----------11----11----|
--12--13----13--------------|--12----12----------------|
----------------------------|--------------------------|
--12--11----------------11--|--10----------------10----|


                                                                        
--10--10-----------------|----------------------|----------------------|
--7---7------------------|--6----6----6----6----|--6----6----6----6----|
------7----------7-------|--7----7----7----7----|--7----7----7----7----|
------------7----7----7--|--8----8----8----8----|--8----8----8----8----|
-------------------------|--8-------------------|----------------------|
--9---8----------7-------|--6-------------------|----------------------|


                                                                            
-------------------------|-------------------------|--6----------6----------|
--8----6--6--5--5--6--6--|--8--8--6--6--5----6--6--|--6----6--6--6----6--6--|
--8----7--7--6--6--7--7--|--8--8--7--7--6----7--7--|--7----7--7--7----7--7--|
--8----8-----8-----8-----|--8-----8-----8----------|------------------------|
-------------------------|-------------------------|------------------------|
-------------------------|-------------------6-----|--6----6-----6----6-----|


                                                                              
-----------------------|--------------3----3----|--4--4--4--4----------------|
--5--5--6----8----6----|--7--7--5--7--5----5----|--6--6--6--6--10----10--10--|
--6--6--7----8----7----|--7--7--6--7--6----6----|--6-----------8-----8---8---|
--5-----8----8----8----|--7--------7------------|--------------10------------|
-----------------------|--0-----------0---------|--------------8-------------|
--6-----6----6----6----|------------------------|--4-------------------------|


                                                                  
--6----13--13--14--13----------|----------13--13--14--13----------|
--6----------------------------|--------------------------16--14--|
--7----------------------------|----------------------------------|
--8----------------------------|----------------------------------|
-----------------------13--13--|--14--13--13--13--14--13----------|
--6----------------------------|--------------------------16--14--|


                                                                      
------------------|----------0---------------|--8----7--7--6----7----|
--13--12--12--12--|--12-----------------0----|--8----7--7--6----7----|
------------------|------13------------------|--9----8-----7----8----|
------------------|---------------11---------|-----------------------|
------------------|--------------------------|-----------------------|
--13--------------|--------------------------|-----------------------|


                                                        
--8--8--7----6--6--7----|------------------------------|
--8--8--7----6--6--7----|--14----12--12--11--11--12----|
--9-----8----7-----8----|--14----13--13--12--12--13----|
------------------------|--14----14------14------14----|
------------------------|------------------------------|
------------------------|--0-----0-------0-------------|


                                                          
--9-----9---11----------------|----------------7---------|
--10----10--10--12----12--12--|--11-----11-----7---------|
--9-----9-------9-----9---9---|--11-----11-----8---------|
--11------------9-----9-------|--11----------------------|
--0-----0-------11----11------|--9---7-------------------|
------------------------------|---------11--9--7----7----|


                                                            
------12------12------12------12--|--8--8--7----6--6--7----|
--14------12------11------10------|--8--8--7----6--6--7----|
--14------13------12------11------|--9-----8----7-----8----|
----------------------------------|------------------------|
----------------------------------|------------------------|
----------------------------------|------------------------|


                                                      
--8--8--7--7--6-----------|--12----------------------|
--8--8--7--7--6-----------|--9-------7--7--9--10--9--|
--9-----8-----7-----9-----|--9-------8--8--9--11--9--|
-----------------9--9--9--|----------9--9--9--9---9--|
-----------------9--7--9--|--------------------------|
-----------------7-----7--|--0-----------------------|


                                                      
---------12--12--12-------|--------------------------|
--7-----------------------|----------7--7--9--10--9--|
--8------9---9---9--------|--9-------8--8--9--11--9--|
--9--------------------9--|--9--9----9--9--9--9---9--|
-----------------------9--|--7--9--------------------|
-----------------------7--|-----7--------------------|


                                                      
---------12--12--12-------|--------------------------|
--7-----------------------|----------7--7--9--10--9--|
--8------9---9---9--------|--9-------8--8--9--11--9--|
--9--------------------9--|--9--9----9--9--9--9---9--|
-----------------------9--|--7--9--------------------|
-----------------------7--|-----7--------------------|


                                                              
-----12--12--12---------------|-----12--12--12---------------|
--7--------------7--9--10--9--|--7--------------7--9--10--9--|
--8--9---9---9---8--9--11--9--|--8--9---9---9---8--9--11--9--|
--9--------------9--9--9---9--|--9--------------9--9--9---9--|
------------------------------|------------------------------|
------------------------------|------------------------------|


                                                    
-----------12--12--12----|--10----------------------|
--7----------------------|--------12----------------|
--8----------------------|--------------12----------|
--9----------------------|--------------------15----|
-------------------------|--------------------------|
-------------------------|--------------------------|


                                                        
--------------5----7---11--|--12------------------------|
------6----8--7----8---7---|--9-------------------------|
--9---7----8--7----7---8---|--9-------------------------|
--10--8----8--7----9-------|--9---9--9--9--11--9--9--9--|
--10--8----6--5----10------|----------------------------|
--8---6----------------7---|--0-------------------------|


                                                  
-----------------------------|-----------7--------|
---------9--9--10--9---------|-----------7--------|
---------9--9--9---9--11--9--|--8--------8--------|
--11--9--9--9--10--9--9---9--|--9--------9--------|
---------------0-------------|--9-----------------|
---------0------------11--9--|--7--------7--------|


                                                              
--12--12----12--12----12--12--|--11--11--11--11--16----------|
--9---9-----10--10----10--10--|--11--------------13----------|
--9---9-----9---9-----9---9---|--12--------------13----13----|
--9---------11----------------|------------------------13----|
------------0-----------------|------------------11----11----|
--0---------------------------|--11--------------------------|


                                                                              
------------------------|------------------------|--7-------------------------|
------------------------|-------------------7----|--7-------------------------|
------------------------|--8----------------8----|--8-------------------------|
--7----------------7----|--7-----------9----9----|-----9--9-9-9--9--9--9-9-9--|
--9-------11--9----9----|--9-------11--9---------|-----9--9-9-9--9--9--9-9-9--|
--7----7------7----7----|--7----7------7----7----|--7--7--7-7-7--7--7--7-7-7--|


                                                        
-----------------------------|--------------------------|
-----------------------------|--------5-----------5-----|
-----------------------------|--------4-----------4-----|
--9--9--9-9-9--9--9--9-9-----|--------------------------|
--9--9--9-9-9--9--9--9-9-----|--7--------------4--6--7--|
--7--7--7-7-7--7--7--7-7-12/-|-----4-----5--7-----------|


                                                      
--------------------------|--------------------------|
--------5-----------------|--------5-----------5-----|
--------4------------4----|--------4-----------4-----|
---------------------4----|--------------------------|
--7------------4----------|--7--------------4--6--7--|
-----4-----5-7----7--7----|-----4-----5--7-----------|


                                                            
---------------------------|-------------------------------|
--------7------------------|-----10----10----10---9---9----|
--------6----------6-------|-----11----11----11---9---9----|
-------------------6-------|-------------------------------|
--9-----------6------------|-------------------------------|
-----6----7-9---9--9--0----|--7--7--7------7-7----7-7---7--|


                                                                            
--------------------------|----------------------------|--------------------|
--9--7----7----7----------|-------7--------------------|--------------------|
--9--8----8----9--9--9----|--8h-9-8--------------------|-----------7--------|
------------------9--9----|--7---------9-9--7-9-7------|--------------------|
--------------------------|-----------------------9/---|--5-----------------|
--7--7-7----7--0-----0----|--7--7-7--7-----------------|--------------------|


                                                              
--------------------------------|----------------------------|
-----10----10----10----9---9----|--9--7----7----7------------|
-----11----11----11----9---9----|--9--8----8----9--9----9----|
-------------------------6------|------------------9----9----|
--9------------------6----------|----------------------------|
--7--7--7------7-7-----7-----7--|--7--7-7----7--0--0--0----0-|


                                                        
--5-----7/-9--------------|--5-------------------------|
--5-----------------------|--2-------------------------|
--6-----7--9--------------|--2-------------------------|
--------------7--7--7-----|----------------------------|
--0--0--0--0--0--0--0-----|-----4--4-4-4--4--4--4-4-4--|
-----------------------4--|--2--2--2-2-2--2--2--2-2-2--|


                                                          
--4-----2-------------------|--5--5----5----5--5----4----|
--2-----2-------------------|--2--2----2----2--2----2----|
--2-----2---------4--4------|--2--2----2----2--2----2----|
------------------4--6-4----|----------------------------|
--2--2--2-2-4/-6---------6--|----------------------------|
----------------------------|--2--2--2---2--2--2--2---2--|


                                                          
--4-----2-------------------|---------------2------------|
--2-----2-------------------|--5--5----5----4------------|
--2-----2---------4--4------|--2--2----2----2------------|
------------------4--6-4----|--2--2----2----------4-4----|
--2--2--2-2-4/-6---------6--|---------------2--2--2-2-2--|
----------------------------|--2--2--2---2---------------|


                                                        
---------------2------------|--------------------------|
--5--5----5----4--5----4----|--------5-----------5-----|
--2--2----2----2--2----2----|--------4-----------4-----|
--2--2----2-------4----4----|--------------------------|
---------------2--2--2---2--|--7--------------4--6--7--|
--2--2--2---2---------------|-----4-----5--7-----------|


                                                      
--------------------------|--------------------------|
--------5-----------------|--------5-----------5-----|
--------4------------4----|--------4-----------4-----|
---------------------4----|--------------------------|
--7------------4----------|--7--------------4--6--7--|
-----4-----5-7----7--7----|-----4-----5--7-----------|


                                                        
--------------------------|----------------------------|
--------7-----------7-----|----------------------------|
--------6-----------6-----|--0h2-4-----2h4-6--4--6--7--|
--------------------------|--0---0---------------------|
--9--------------6--8--9--|--------------4-0-----------|
-----6-----7--9-----------|--3------3------------------|


                                                            
-----------------------------|-----------------------------|
-----------------------------|-----------------------------|
---------------5--7p5-9--10--|------------------------2-4--|
-------5--7h9----------------|-------2--4p2-4--5p4-5-------|
--7h8------------------------|--4h5------------------------|
--8--------------------------|--5--------------------------|


                                                        
------------------------------|------------------------|
------------------------------|--------4-------7-------|
-----------------------4---4--|--6--------4----4-------|
------4--6p4-6--7p6-7----7----|-----7----------4-------|
--6h7-------------------------|------------------------|
--7---------------------------|----------------7----7/-|


                                                        
-------------------------|------------------------------|
-----------9--12---------|------------------12----------|
--------9-----9-----9----|--------------11--11----11----|
-----9--------9----------|----------13------13----------|
-------------------------|------14----------------------|
--0-----------0----------|--11--------------11----------|


                                                      
--------------------------|--------------------------|
---------------9----------|--7-----9/-10--9----------|
------------9--9----9-----|--8------------9----------|
---------9-----9----11----|--7--7--------------11----|
-----11-------------------|--------------------------|
--9------------9----------|--8------------9----------|


                                                        
--------------------------|----------------------------|
--7-----9/-10--9----------|--7---------9h10-9/---12----|
--8------------9----------|--8---------9-11-9----------|
--7--7--------------11----|--9--7-----------7----------|
--------------------------|--------11--9---------------|
--8------------9----------|----------------------------|


                                                      
--------------------------|--------------11----------|
--11----------------11----|--12----------12----12----|
--12----------13----12----|--13----------13----13----|
--------11----15----------|--------13----------------|
--------------------------|--11----------------------|
--11----------------------|--------------------------|


                                                        
----------------------------|--------------------------|
--14----------------14/-16--|--12----------------12----|
--14----------14----14--16--|--13----------13----------|
--------14------------------|--------14----------------|
--0-------------------------|--------------------------|
----------------------------|--0-----------------------|


                                                        
--16----14--12-------------|----------------------------|
--9---------------------9--|--12----12------------------|
--9------------------9-----|--------------------11------|
---------------------------|--------------13--------13--|
---------------------------|--11------------------------|
--9---------------9--------|----------------------------|


                                                        
--16----14--12----------11--|--------------------------|
--9-------------------------|--12----------------------|
--9------------------9------|--11----------11----------|
----------------------------|--------13----------13----|
----------------------------|--11----------------------|
--9---------------9---------|--------------------------|


                                                        
--16----12----14----16----|--12------------------12----|
--9-----------------------|--13----13------13----------|
--9-----------------------|------------14--------------|
--------------------------|----------------------------|
--------------------------|--0-------------------------|
--9-----------------------|----------------------------|


                                                      
--16----14----14----------|--------------------------|
--14----------------17----|--17----14----------16----|
--14----------------------|--14----------14----------|
--14----------------------|--14----------------------|
--14----------------------|--14----------------------|
--------------------------|--------------------------|


                                                      
--12----------------------|--------11----------11----|
--12----------------12----|--14----------14----------|
--------------13----------|--14----------14----------|
--------14----------------|--------------------------|
--------------------------|--------------------------|
--0-----------------------|--------------------------|


                                                      
--------------------------|--------11----------11----|
--12----------------12----|--14----------14----------|
--13----------13----------|--12----------12----------|
--------14----------------|--14----------14----------|
--------------------------|--------------------------|
--0-----------------------|--------------------------|


                                                                                
--------------------------|--------------------------|-------------------------|
--12----------------12----|--12p---10----10----------|--9-----------------9----|
--11----------11----------|--11----------------13----|--10----------10---------|
--------13----------------|--12----------------------|--------11---------------|
--------------------------|--------------------------|-------------------------|
--11----------------------|--10----------------------|--9----------------------|


                                                                              
-------------------------|-------------------------|--------------------------|
--12----10----10----9----|--9----------------------|--------------------14----|
-------------------------|--10----10---------------|--------------15----------|
--12---------------------|--------------11----9----|--------16----------------|
-------------------------|-------------------------|--------------------------|
--9----------------------|--9----------------------|--14----------------------|


                                                                            
--------14----------14----|--------14----------14----|--14------------------|
--16----------14----------|--13----------12----------|--11--------11--------|
--16----------15----------|--14----------13----------|--11--------11--------|
--------------------------|--------------------------|--11--------11--------|
--------------------------|--------------------------|--9-------------------|
--------------------------|--------------------------|----------------------|


                      
--------------------||
--11----------------||
--11----------------||
--11----------------||
--------------------||
--------------------||

In Topic: Perfidia by The Cliffters

18 August 2009 - 01:40 AM

I can get you the version by The Shadows. Reply back if you want it.

In Topic: PLEASE tab this. Aphex Twin - Rhubarb On Classical Guitar

17 August 2009 - 12:16 AM

QUOTE (igorski @ Aug 1 2009, 06:28 AM) <{POST_SNAPBACK}>
Some YouTuber beat you to it:


Love it how someone comes and requests a song, and then someone nice like you helps them out... and then you get no thank you.

In Topic: Need help on Dream a Little Dream of Me

16 August 2009 - 06:47 PM

QUOTE (REDPONY @ Jul 20 2009, 12:25 PM) <{POST_SNAPBACK}>
Hello, I was looking to see if anyone has seen a tab version of Dream a little Dream of me done in a Country Blues type fingerpicking or stride. I do a version of it already, but have been looking to do it a little different. The one I do is a mix of a couple of different versions that I have found a little by ear. Tahnkx for any help, Chad


This is a jazz version that I got from somewhere else. Tabbed by someone named Helmut Iken. Style is in The Mamas & The Papas way. It's a triplet feel. Not sure if it is what you need, and is probably a month too late.

CODE
              Dream A Little Dream Of Me                            


               Fabian Andree, W. Schwand




                                                                              
E||-------------------------|------------------------|------------------------|
B||--------1----0--1--0-----|--1-------0-------------|-------1----0--1--0-----|
G||*------------2--------2--|--1-------0-------------|---------------------2--|
D||*-------2----------1-----|--1----1--0-------------|-------2----------2-----|
A||---3---------2-----------|------------------0--2--|--3---------3-----------|
E||-------------------------|--4------------3--------|------------------------|


                                                      
-----0-------------------|---------------------------|
--2--------2-------------|-------3----1--3-----1-----|
--2-----------3--2-------|------------------------2--|
--------2-----------2----|-------3----------3--------|
--0----------------------|---------------------------|
--------------0----------|--1---------1--------------|


                                                                                
--------------------------|-------------------------|-------------------------||
--3---1---------1---------|--------1--3--4----4--3--|---------------------0---||
------------1-------------|--0--2--------5----5--4--|---------------2--------*||
---------3-----------3----|--------2-----4----3--3--|--3----3----------------*||
--------------------------|--3----------------------|------------0-----2------||
--1-------------1---------|--------------4----------|--3----------------------||


                                                                                
-------------------------|-----3--0--------0--------|--------5-----2--5-----2--|
--------1--3--4----3--1--|-----------1--3--------0--|-----2--------------------|
--0--2--------5----4--0--|--------------------------|-----------2--------------|
--------2-----4----3--2--|--------2-----------2-----|--------2-----------4-----|
--3----------------------|--3-----------------------|--0-----------------------|
--------------4----------|--------------0-----------|--------------2-----------|


                                                                              
-------------------------|--------5-----2--5-----2--|------------------------|
--5--2-----5-------------|-----2--------------------|--5-------0-----3-------|
-----------------1-------|-----------2--------------|------------------------|
--------4-----4----------|--------2-----------4-----|-------4-----------2----|
--2-----------------2----|--0-----------------------|--2---------------------|
--------------0----------|--------------2-----------|-------------0----------|


                                                                            
-------5-----2--5-----2--|-------------------------|-------5---------------|
-------------------------|--5--2-----5-------------|------------5--2-------|
----------2--------------|-----------------1-------|-----------------------|
-------2-----------4-----|--------4-----4----------|-------2----------4----|
--0----------------------|--2-----------------2----|--0--------------------|
-------------2-----------|--------------0----------|------------2----------|


                                                                              
------4-------------3--------||-------------------------|----------8---------||
----------------0------------||--------1--3--4----3--1--|----------8---------||
--5---------5---------------*||--0--2--------5----4--0--|----------9---------||
---------4-------------3----*||--------2-----4----3--2--|----------10--------||
-----------------------------||--3-------------------3--|----------10--------||
--4-------------3------------||--------------4----3-----|----------8---------||


Please consider donating to GuitarZone.com.
With more and more people using ad blocking add-ons for browsers, ad revenue has plummeted.
If you can spare even US$5 it would mean a lot to help pay for GZ's monthly server bill.
Thank you to all. Cheers! --Rob



Method #1: PayPal



Click 'Donate' above
to donate with any
major credit card or
existing PayPal funds.


E-mail on record with PayPal
[ ]



Method #2: Bitcoin


Option A )  Scan Bitcoin QR Code


Scan above box with mobile phone, or click...



Option B )  Copy and Paste Bitcoin Address

  13NA7exoZVPGBAxnKXcQAz35JQ5PvnhYDE  


Copy above address and paste into Bitcoin app...



Learn more about Bitcoin...